  0
SECTION
  2
HEADER
  9
$ACADVER
  1
AC1015
  9
$ACADMAINTVER
 70
    20
  9
$DWGCODEPAGE
  3
ANSI_932
  9
$INSBASE
 10
0.0
 20
0.0
 30
0.0
  9
$EXTMIN
 10
-210.0000000000001
 20
-138.5
 30
0.0
  9
$EXTMAX
 10
203.082430383712
 20
174.4988281325934
 30
0.0
  9
$LIMMIN
 10
-197.253609
 20
-138.501
  9
$LIMMAX
 10
195.16076
 20
138.501
  9
$ORTHOMODE
 70
     1
  9
$REGENMODE
 70
     1
  9
$FILLMODE
 70
     1
  9
$QTEXTMODE
 70
     0
  9
$MIRRTEXT
 70
     0
  9
$LTSCALE
 40
6.540205999999997
  9
$ATTMODE
 70
     1
  9
$TEXTSIZE
 40
3.2
  9
$TRACEWID
 40
0.05
  9
$TEXTSTYLE
  7
高3.2
  9
$CLAYER
  8
0
  9
$CELTYPE
  6
CONTINUOUS
  9
$CECOLOR
 62
   256
  9
$CELTSCALE
 40
1.0
  9
$DISPSILH
 70
     0
  9
$DIMSCALE
 40
1.0
  9
$DIMASZ
 40
2.5
  9
$DIMEXO
 40
0.25
  9
$DIMDLI
 40
0.2
  9
$DIMRND
 40
0.0
  9
$DIMDLE
 40
0.0
  9
$DIMEXE
 40
1.25
  9
$DIMTP
 40
0.0
  9
$DIMTM
 40
0.0
  9
$DIMTXT
 40
3.0
  9
$DIMCEN
 40
0.0
  9
$DIMTSZ
 40
0.0
  9
$DIMTOL
 70
     0
  9
$DIMLIM
 70
     0
  9
$DIMTIH
 70
     0
  9
$DIMTOH
 70
     0
  9
$DIMSE1
 70
     0
  9
$DIMSE2
 70
     0
  9
$DIMTAD
 70
     3
  9
$DIMZIN
 70
     8
  9
$DIMBLK
  1
Open30
  9
$DIMASO
 70
     1
  9
$DIMSHO
 70
     1
  9
$DIMPOST
  1

  9
$DIMAPOST
  1

  9
$DIMALT
 70
     0
  9
$DIMALTD
 70
     3
  9
$DIMALTF
 40
0.03937007874016
  9
$DIMLFAC
 40
8.0
  9
$DIMTOFL
 70
     1
  9
$DIMTVP
 40
0.0
  9
$DIMTIX
 70
     0
  9
$DIMSOXD
 70
     0
  9
$DIMSAH
 70
     0
  9
$DIMBLK1
  1

  9
$DIMBLK2
  1

  9
$DIMSTYLE
  2
1／8
  9
$DIMCLRD
 70
     0
  9
$DIMCLRE
 70
     0
  9
$DIMCLRT
 70
     4
  9
$DIMTFAC
 40
1.0
  9
$DIMGAP
 40
0.625
  9
$DIMJUST
 70
     0
  9
$DIMSD1
 70
     0
  9
$DIMSD2
 70
     0
  9
$DIMTOLJ
 70
     0
  9
$DIMTZIN
 70
     8
  9
$DIMALTZ
 70
     0
  9
$DIMALTTZ
 70
     0
  9
$DIMUPT
 70
     1
  9
$DIMDEC
 70
     2
  9
$DIMTDEC
 70
     2
  9
$DIMALTU
 70
     2
  9
$DIMALTTD
 70
     3
  9
$DIMTXSTY
  7
STANDARD
  9
$DIMAUNIT
 70
     0
  9
$DIMADEC
 70
     1
  9
$DIMALTRND
 40
0.0
  9
$DIMAZIN
 70
     2
  9
$DIMDSEP
 70
    46
  9
$DIMATFIT
 70
     0
  9
$DIMFRAC
 70
     0
  9
$DIMLDRBLK
  1
Open30
  9
$DIMLUNIT
 70
     2
  9
$DIMLWD
 70
    -2
  9
$DIMLWE
 70
    -2
  9
$DIMTMOVE
 70
     0
  9
$LUNITS
 70
     2
  9
$LUPREC
 70
     4
  9
$SKETCHINC
 40
0.1
  9
$FILLETRAD
 40
0.0
  9
$AUNITS
 70
     0
  9
$AUPREC
 70
     0
  9
$MENU
  1
.
  9
$ELEVATION
 40
0.0
  9
$PELEVATION
 40
0.0
  9
$THICKNESS
 40
0.0
  9
$LIMCHECK
 70
     0
  9
$CHAMFERA
 40
0.0
  9
$CHAMFERB
 40
0.0
  9
$CHAMFERC
 40
0.0
  9
$CHAMFERD
 40
0.0
  9
$SKPOLY
 70
     0
  9
$TDCREATE
 40
2455608.759342940
  9
$TDUCREATE
 40
2455608.384342940
  9
$TDUPDATE
 40
2457204.637596944
  9
$TDUUPDATE
 40
2457204.262596945
  9
$TDINDWG
 40
0.0358461574
  9
$TDUSRTIMER
 40
0.0358371065
  9
$USRTIMER
 70
     1
  9
$ANGBASE
 50
0.0
  9
$ANGDIR
 70
     0
  9
$PDMODE
 70
     0
  9
$PDSIZE
 40
0.0
  9
$PLINEWID
 40
0.0
  9
$SPLFRAME
 70
     0
  9
$SPLINETYPE
 70
     6
  9
$SPLINESEGS
 70
     8
  9
$HANDSEED
  5
11C9
  9
$SURFTAB1
 70
     6
  9
$SURFTAB2
 70
     6
  9
$SURFTYPE
 70
     6
  9
$SURFU
 70
     6
  9
$SURFV
 70
     6
  9
$UCSBASE
  2

  9
$UCSNAME
  2

  9
$UCSORG
 10
0.0
 20
0.0
 30
0.0
  9
$UCSXDIR
 10
1.0
 20
0.0
 30
0.0
  9
$UCSYDIR
 10
0.0
 20
1.0
 30
0.0
  9
$UCSORTHOREF
  2

  9
$UCSORTHOVIEW
 70
     0
  9
$UCSORGTOP
 10
0.0
 20
0.0
 30
0.0
  9
$UCSORGBOTTOM
 10
0.0
 20
0.0
 30
0.0
  9
$UCSORGLEFT
 10
0.0
 20
0.0
 30
0.0
  9
$UCSORGRIGHT
 10
0.0
 20
0.0
 30
0.0
  9
$UCSORGFRONT
 10
0.0
 20
0.0
 30
0.0
  9
$UCSORGBACK
 10
0.0
 20
0.0
 30
0.0
  9
$PUCSBASE
  2

  9
$PUCSNAME
  2

  9
$PUCSORG
 10
0.0
 20
0.0
 30
0.0
  9
$PUCSXDIR
 10
1.0
 20
0.0
 30
0.0
  9
$PUCSYDIR
 10
0.0
 20
1.0
 30
0.0
  9
$PUCSORTHOREF
  2

  9
$PUCSORTHOVIEW
 70
     0
  9
$PUCSORGTOP
 10
0.0
 20
0.0
 30
0.0
  9
$PUCSORGBOTTOM
 10
0.0
 20
0.0
 30
0.0
  9
$PUCSORGLEFT
 10
0.0
 20
0.0
 30
0.0
  9
$PUCSORGRIGHT
 10
0.0
 20
0.0
 30
0.0
  9
$PUCSORGFRONT
 10
0.0
 20
0.0
 30
0.0
  9
$PUCSORGBACK
 10
0.0
 20
0.0
 30
0.0
  9
$USERI1
 70
     0
  9
$USERI2
 70
     0
  9
$USERI3
 70
     0
  9
$USERI4
 70
     0
  9
$USERI5
 70
     0
  9
$USERR1
 40
0.0
  9
$USERR2
 40
0.0
  9
$USERR3
 40
0.0
  9
$USERR4
 40
0.0
  9
$USERR5
 40
0.0
  9
$WORLDVIEW
 70
     1
  9
$SHADEDGE
 70
     3
  9
$SHADEDIF
 70
    70
  9
$TILEMODE
 70
     1
  9
$MAXACTVP
 70
    64
  9
$PINSBASE
 10
0.0
 20
0.0
 30
0.0
  9
$PLIMCHECK
 70
     0
  9
$PEXTMIN
 10
1.000000000000000E+20
 20
1.000000000000000E+20
 30
1.000000000000000E+20
  9
$PEXTMAX
 10
-1.000000000000000E+20
 20
-1.000000000000000E+20
 30
-1.000000000000000E+20
  9
$PLIMMIN
 10
0.0
 20
0.0
  9
$PLIMMAX
 10
12.0
 20
9.0
  9
$UNITMODE
 70
     0
  9
$VISRETAIN
 70
     1
  9
$PLINEGEN
 70
     0
  9
$PSLTSCALE
 70
     1
  9
$TREEDEPTH
 70
  3020
  9
$CMLSTYLE
  2
Standard
  9
$CMLJUST
 70
     0
  9
$CMLSCALE
 40
1.0
  9
$PROXYGRAPHICS
 70
     1
  9
$MEASUREMENT
 70
     0
  9
$CELWEIGHT
370
    -1
  9
$ENDCAPS
280
     0
  9
$JOINSTYLE
280
     0
  9
$LWDISPLAY
290
     0
  9
$INSUNITS
 70
     0
  9
$HYPERLINKBASE
  1

  9
$STYLESHEET
  1

  9
$XEDIT
290
     1
  9
$CEPSNTYPE
380
     0
  9
$PSTYLEMODE
290
     1
  9
$FINGERPRINTGUID
  2
{7C470396-56C7-4D38-8304-68774C7F3704}
  9
$VERSIONGUID
  2
{6E4A86D8-D4C3-40CB-8EAA-BEBE71BF4B70}
  9
$EXTNAMES
290
     1
  9
$PSVPSCALE
 40
0.0
  9
$OLESTARTUP
290
     0
  0
ENDSEC
  0
SECTION
  2
CLASSES
  0
CLASS
  1
ACDBDICTIONARYWDFLT
  2
AcDbDictionaryWithDefault
  3
ObjectDBX Classes
 90
        0
280
     0
281
     0
  0
CLASS
  1
MATERIAL
  2
AcDbMaterial
  3
ObjectDBX Classes
 90
     1153
280
     0
281
     0
  0
CLASS
  1
VISUALSTYLE
  2
AcDbVisualStyle
  3
ObjectDBX Classes
 90
     4095
280
     0
281
     0
  0
CLASS
  1
SCALE
  2
AcDbScale
  3
ObjectDBX Classes
 90
     1153
280
     0
281
     0
  0
CLASS
  1
TABLESTYLE
  2
AcDbTableStyle
  3
ObjectDBX Classes
 90
     4095
280
     0
281
     0
  0
CLASS
  1
MLEADERSTYLE
  2
AcDbMLeaderStyle
  3
ACDB_MLEADERSTYLE_CLASS
 90
     4095
280
     0
281
     0
  0
CLASS
  1
DICTIONARYVAR
  2
AcDbDictionaryVar
  3
ObjectDBX Classes
 90
        0
280
     0
281
     0
  0
CLASS
  1
CELLSTYLEMAP
  2
AcDbCellStyleMap
  3
ObjectDBX Classes
 90
     1152
280
     0
281
     0
  0
CLASS
  1
ACDBPLACEHOLDER
  2
AcDbPlaceHolder
  3
ObjectDBX Classes
 90
        0
280
     0
281
     0
  0
CLASS
  1
LAYOUT
  2
AcDbLayout
  3
ObjectDBX Classes
 90
        0
280
     0
281
     0
  0
CLASS
  1
SORTENTSTABLE
  2
AcDbSortentsTable
  3
ObjectDBX Classes
 90
        0
280
     0
281
     0
  0
CLASS
  1
AEC_REFEDIT_STATUS_TRACKER
  2
AecDbRefEditStatusTracker
  3
AecArchBase60|Product Desc: Autodesk Architectural Desktop 2007 |Company: Autodesk,Inc. |WEB Address: www.autodesk.com
 90
      129
280
     0
281
     0
  0
CLASS
  1
NPOCOLLECTION
  2
AcDbImpNonPersistentObjectsCollection
  3
ObjectDBX Classes
 90
     1153
280
     0
281
     0
  0
ENDSEC
  0
SECTION
  2
TABLES
  0
TABLE
  2
VPORT
  5
8
330
0
100
AcDbSymbolTable
 70
     1
  0
VPORT
  5
8C
330
8
100
AcDbSymbolTableRecord
100
AcDbViewportTableRecord
  2
*Active
 70
     0
 10
0.0
 20
0.0
 11
1.0
 21
1.0
 12
43.98922635382155
 22
-16.02640283475881
 13
0.0
 23
0.0
 14
1.0
 24
1.0
 15
0.0
 25
0.0
 16
0.0
 26
0.0
 36
1.0
 17
0.0
 27
0.0
 37
0.0
 40
577.3723820770814
 41
1.648818897637795
 42
50.0
 43
0.0
 44
0.0
 50
0.0
 51
0.0
 71
     0
 72
  1000
 73
     1
 74
     1
 75
     0
 76
     0
 77
     0
 78
     0
281
     0
 65
     1
110
0.0
120
0.0
130
0.0
111
1.0
121
0.0
131
0.0
112
0.0
122
1.0
132
0.0
 79
     0
146
0.0
  0
ENDTAB
  0
TABLE
  2
LTYPE
  5
5
330
0
100
AcDbSymbolTable
 70
     4
  0
LTYPE
  5
5A
330
5
100
AcDbSymbolTableRecord
100
AcDbLinetypeTableRecord
  2
ByBlock
 70
     0
  3

 72
    65
 73
     0
 40
0.0
  0
LTYPE
  5
5B
330
5
100
AcDbSymbolTableRecord
100
AcDbLinetypeTableRecord
  2
ByLayer
 70
     0
  3

 72
    65
 73
     0
 40
0.0
  0
LTYPE
  5
5C
330
5
100
AcDbSymbolTableRecord
100
AcDbLinetypeTableRecord
  2
CONTINUOUS
 70
     0
  3
Solid-line
 72
    65
 73
     0
 40
0.0
  0
LTYPE
  5
72
330
5
100
AcDbSymbolTableRecord
100
AcDbLinetypeTableRecord
  2
CENTER
 70
     0
  3
CENTER
 72
    65
 73
     4
 40
2.0
 49
1.25
 74
     0
 49
-0.25
 74
     0
 49
0.25
 74
     0
 49
-0.25
 74
     0
  0
LTYPE
  5
78
330
5
100
AcDbSymbolTableRecord
100
AcDbLinetypeTableRecord
  2
DASHED
 70
     0
  3
DASHED
 72
    65
 73
     2
 40
0.75
 49
0.5
 74
     0
 49
-0.25
 74
     0
  0
ENDTAB
  0
TABLE
  2
LAYER
  5
2
102
{ACAD_XDICTIONARY
360
623
102
}
330
0
100
AcDbSymbolTable
 70
     2
  0
LAYER
  5
54
102
{ACAD_XDICTIONARY
360
813
102
}
330
2
100
AcDbSymbolTableRecord
100
AcDbLayerTableRecord
  2
0
 70
     0
 62
     7
  6
CONTINUOUS
370
    -3
390
F
  0
LAYER
  5
60E
330
2
100
AcDbSymbolTableRecord
100
AcDbLayerTableRecord
  2
Defpoints
 70
     0
 62
     7
  6
CONTINUOUS
290
     0
370
    -3
390
F
  0
ENDTAB
  0
TABLE
  2
STYLE
  5
3
330
0
100
AcDbSymbolTable
 70
     6
  0
STYLE
  5
55
330
3
100
AcDbSymbolTableRecord
100
AcDbTextStyleTableRecord
  2
STANDARD
 70
     0
 40
0.0
 41
1.0
 50
0.0
 71
     0
 42
0.2
  3
TXT
  4
BIGFONT
  0
STYLE
  5
60F
330
3
100
AcDbSymbolTableRecord
100
AcDbTextStyleTableRecord
  2
高3.2
 70
     0
 40
3.2
 41
1.0
 50
0.0
 71
     0
 42
3.2
  3
txt.shx
  4
bigfont.shx
  0
STYLE
  5
610
330
3
100
AcDbSymbolTableRecord
100
AcDbTextStyleTableRecord
  2
高6.3
 70
     0
 40
6.299999999999998
 41
1.0
 50
0.0
 71
     0
 42
6.299999999999998
  3
txt.shx
  4
bigfont.shx
  0
STYLE
  5
611
330
3
100
AcDbSymbolTableRecord
100
AcDbTextStyleTableRecord
  2
高2.5
 70
     0
 40
2.5
 41
1.0
 50
0.0
 71
     0
 42
0.2
  3
txt.shx
  4
bigfont.shx
  0
STYLE
  5
612
330
3
100
AcDbSymbolTableRecord
100
AcDbTextStyleTableRecord
  2
高4.5
 70
     0
 40
4.5
 41
1.0
 50
0.0
 71
     0
 42
6.299999999999998
  3
txt.shx
  4
bigfont.shx
  0
STYLE
  5
613
330
3
100
AcDbSymbolTableRecord
100
AcDbTextStyleTableRecord
  2
高2
 70
     0
 40
2.0
 41
1.0
 50
0.0
 71
     0
 42
6.299999999999998
  3
txt.shx
  4
bigfont.shx
  0
ENDTAB
  0
TABLE
  2
VIEW
  5
6
330
0
100
AcDbSymbolTable
 70
     0
  0
ENDTAB
  0
TABLE
  2
UCS
  5
7
330
0
100
AcDbSymbolTable
 70
     0
  0
ENDTAB
  0
TABLE
  2
APPID
  5
9
330
0
100
AcDbSymbolTable
 70
    11
  0
APPID
  5
56
330
9
100
AcDbSymbolTableRecord
100
AcDbRegAppTableRecord
  2
ACAD
 70
     0
  0
APPID
  5
5D
330
9
100
AcDbSymbolTableRecord
100
AcDbRegAppTableRecord
  2
AcadAnnotative
 70
     0
  0
APPID
  5
61E
330
9
100
AcDbSymbolTableRecord
100
AcDbRegAppTableRecord
  2
ACAD_DSTYLE_DIMJOGGED_JOGANGLE_SYMBOL
 70
     0
  0
APPID
  5
61F
330
9
100
AcDbSymbolTableRecord
100
AcDbRegAppTableRecord
  2
ACAD_DSTYLE_DIMJAG
 70
     0
  0
APPID
  5
620
330
9
100
AcDbSymbolTableRecord
100
AcDbRegAppTableRecord
  2
ACAD_DSTYLE_DIMBREAK
 70
     0
  0
APPID
  5
621
330
9
100
AcDbSymbolTableRecord
100
AcDbRegAppTableRecord
  2
ACAD_DSTYLE_DIMTALN
 70
     0
  0
APPID
  5
751
330
9
100
AcDbSymbolTableRecord
100
AcDbRegAppTableRecord
  2
ACAD_EXEMPT_FROM_CAD_STANDARDS
 70
     0
  0
APPID
  5
85D
330
9
100
AcDbSymbolTableRecord
100
AcDbRegAppTableRecord
  2
ACAD_MLEADERVER
 70
     0
  0
APPID
  5
862
330
9
100
AcDbSymbolTableRecord
100
AcDbRegAppTableRecord
  2
ACAD_DSTYLE_DIMARC_LENGTH_SYMBOL
 70
     0
  0
APPID
  5
863
330
9
100
AcDbSymbolTableRecord
100
AcDbRegAppTableRecord
  2
ACAD_DSTYLE_DIMEXT_LENGTH
 70
     0
  0
APPID
  5
FF0
330
9
100
AcDbSymbolTableRecord
100
AcDbRegAppTableRecord
  2
ACAD_PSEXT
 70
     0
  0
ENDTAB
  0
TABLE
  2
DIMSTYLE
  5
A
330
0
100
AcDbSymbolTable
 70
    12
100
AcDbDimStyleTable
 71
     5
340
614
340
75C
340
61B
340
61A
340
619
  0
DIMSTYLE
105
57
330
A
100
AcDbSymbolTableRecord
100
AcDbDimStyleTableRecord
  2
Standard
 70
     0
340
55
  0
DIMSTYLE
105
614
330
A
100
AcDbSymbolTableRecord
100
AcDbDimStyleTableRecord
  2
1：1
 70
     0
 41
2.5
 42
0.25
 43
0.2
 44
1.25
 73
     0
 74
     0
 77
     3
 78
     8
 79
     2
140
3.0
141
0.0
143
0.03937007874016
147
0.625
171
     3
172
     1
178
     4
179
     1
271
     2
272
     2
274
     3
283
     0
284
     8
288
     1
289
     0
340
55
341
57E
342
57E
1001
ACAD_DSTYLE_DIMARC_LENGTH_SYMBOL
1070
   379
1070
     2
1001
ACAD_DSTYLE_DIMEXT_LENGTH
1070
   378
1040
1.25
1001
ACAD_DSTYLE_DIMJOGGED_JOGANGLE_SYMBOL
1070
   384
1040
1.570796326794896
  0
DIMSTYLE
105
615
330
A
100
AcDbSymbolTableRecord
100
AcDbDimStyleTableRecord
  2
2：1
 70
     0
 41
2.5
 42
0.25
 43
0.2
 44
1.25
 73
     0
 74
     0
 77
     3
 78
     8
 79
     2
140
3.0
141
0.0
143
0.03937007874016
144
0.5
147
0.625
171
     3
172
     1
178
     4
179
     1
271
     2
272
     2
274
     3
283
     0
284
     8
288
     1
289
     0
340
55
341
57E
342
57E
1001
ACAD_DSTYLE_DIMARC_LENGTH_SYMBOL
1070
   379
1070
     2
1001
ACAD_DSTYLE_DIMEXT_LENGTH
1070
   378
1040
1.25
1001
ACAD_DSTYLE_DIMJOGGED_JOGANGLE_SYMBOL
1070
   384
1040
1.570796326794896
  0
DIMSTYLE
105
616
330
A
100
AcDbSymbolTableRecord
100
AcDbDimStyleTableRecord
  2
5：1
 70
     0
 41
2.5
 42
0.25
 43
0.2
 44
1.25
 73
     0
 74
     0
 77
     3
 78
     8
 79
     2
140
3.0
141
0.0
143
0.03937007874016
144
0.2
147
0.625
171
     3
172
     1
178
     4
179
     1
271
     2
272
     2
274
     3
283
     0
284
     8
288
     1
289
     0
340
55
341
57E
342
57E
1001
ACAD_DSTYLE_DIMARC_LENGTH_SYMBOL
1070
   379
1070
     2
1001
ACAD_DSTYLE_DIMEXT_LENGTH
1070
   378
1040
1.25
1001
ACAD_DSTYLE_DIMJOGGED_JOGANGLE_SYMBOL
1070
   384
1040
1.570796326794896
  0
DIMSTYLE
105
617
330
A
100
AcDbSymbolTableRecord
100
AcDbDimStyleTableRecord
  2
10：1
 70
     0
 41
2.5
 42
0.25
 43
0.2
 44
1.25
 73
     0
 74
     0
 77
     3
 78
     8
 79
     2
140
3.0
141
0.0
143
0.03937007874016
144
0.1
147
0.625
171
     3
172
     1
178
     4
179
     1
271
     2
272
     2
274
     3
283
     0
284
     8
288
     1
289
     0
340
55
341
57E
342
57E
1001
ACAD_DSTYLE_DIMARC_LENGTH_SYMBOL
1070
   379
1070
     2
1001
ACAD_DSTYLE_DIMEXT_LENGTH
1070
   378
1040
1.25
1001
ACAD_DSTYLE_DIMJOGGED_JOGANGLE_SYMBOL
1070
   384
1040
1.570796326794896
  0
DIMSTYLE
105
618
330
A
100
AcDbSymbolTableRecord
100
AcDbDimStyleTableRecord
  2
1／2
 70
     0
 41
2.5
 42
0.25
 43
0.2
 44
1.25
 73
     0
 74
     0
 77
     3
 78
     8
 79
     2
140
3.0
141
0.0
143
0.03937007874016
144
2.0
147
0.625
171
     3
172
     1
178
     4
179
     1
271
     2
272
     2
274
     3
283
     0
284
     8
288
     1
289
     0
340
55
341
57E
342
57E
1001
ACAD_DSTYLE_DIMARC_LENGTH_SYMBOL
1070
   379
1070
     2
1001
ACAD_DSTYLE_DIMEXT_LENGTH
1070
   378
1040
1.25
1001
ACAD_DSTYLE_DIMJOGGED_JOGANGLE_SYMBOL
1070
   384
1040
1.570796326794896
  0
DIMSTYLE
105
619
330
A
100
AcDbSymbolTableRecord
100
AcDbDimStyleTableRecord
  2
1／5
 70
     0
 41
2.5
 42
0.25
 43
0.2
 44
1.25
 73
     0
 74
     0
 77
     3
 78
     8
 79
     2
140
3.0
141
0.0
143
0.03937007874016
144
5.0
147
0.625
171
     3
172
     1
178
     4
179
     1
271
     2
272
     2
274
     3
283
     0
284
     8
288
     1
289
     0
340
55
341
57E
342
57E
1001
ACAD_DSTYLE_DIMARC_LENGTH_SYMBOL
1070
   379
1070
     2
1001
ACAD_DSTYLE_DIMEXT_LENGTH
1070
   378
1040
1.25
1001
ACAD_DSTYLE_DIMJOGGED_JOGANGLE_SYMBOL
1070
   384
1040
1.570796326794896
  0
DIMSTYLE
105
61A
330
A
100
AcDbSymbolTableRecord
100
AcDbDimStyleTableRecord
  2
1／10
 70
     0
 41
2.5
 42
0.25
 43
0.2
 44
1.25
 73
     0
 74
     0
 77
     3
 78
     8
 79
     2
140
3.0
141
0.0
143
0.03937007874016
144
10.0
147
0.625
171
     3
172
     1
178
     4
179
     1
271
     2
272
     2
274
     3
283
     0
284
     8
288
     1
289
     0
340
55
341
57E
342
57E
1001
ACAD_DSTYLE_DIMARC_LENGTH_SYMBOL
1070
   379
1070
     2
1001
ACAD_DSTYLE_DIMEXT_LENGTH
1070
   378
1040
1.25
1001
ACAD_DSTYLE_DIMJOGGED_JOGANGLE_SYMBOL
1070
   384
1040
1.570796326794896
  0
DIMSTYLE
105
61B
330
A
100
AcDbSymbolTableRecord
100
AcDbDimStyleTableRecord
  2
1／4
 70
     0
 41
2.5
 42
0.25
 43
0.2
 44
1.25
 73
     0
 74
     0
 77
     3
 78
     8
 79
     2
140
3.0
141
0.0
143
0.03937007874016
144
4.0
147
0.625
171
     3
172
     1
178
     4
179
     1
271
     2
272
     2
274
     3
283
     0
284
     8
288
     1
289
     0
340
55
341
57E
342
57E
1001
ACAD_DSTYLE_DIMARC_LENGTH_SYMBOL
1070
   379
1070
     2
1001
ACAD_DSTYLE_DIMEXT_LENGTH
1070
   378
1040
1.25
1001
ACAD_DSTYLE_DIMJOGGED_JOGANGLE_SYMBOL
1070
   384
1040
1.570796326794896
  0
DIMSTYLE
105
61C
330
A
100
AcDbSymbolTableRecord
100
AcDbDimStyleTableRecord
  2
1／3
 70
     0
 41
2.5
 42
0.25
 43
0.2
 44
1.25
 73
     0
 74
     0
 77
     3
 78
     8
 79
     2
140
3.0
141
0.0
143
0.03937007874016
144
3.0
147
0.625
171
     3
172
     1
178
     4
179
     1
271
     2
272
     2
274
     3
283
     0
284
     8
288
     1
289
     0
340
55
341
57E
342
57E
1001
ACAD_DSTYLE_DIMARC_LENGTH_SYMBOL
1070
   379
1070
     2
1001
ACAD_DSTYLE_DIMEXT_LENGTH
1070
   378
1040
1.25
1001
ACAD_DSTYLE_DIMJOGGED_JOGANGLE_SYMBOL
1070
   384
1040
1.570796326794896
  0
DIMSTYLE
105
61D
330
A
100
AcDbSymbolTableRecord
100
AcDbDimStyleTableRecord
  2
FREE
 70
     0
 41
2.5
 42
0.25
 43
0.2
 44
1.25
 73
     0
 74
     0
 77
     3
 78
     8
 79
     2
140
3.0
141
0.0
143
0.03937007874016
147
0.625
171
     3
172
     1
178
     4
179
     1
271
     2
272
     2
274
     3
283
     0
284
     8
288
     1
289
     0
340
55
341
57E
342
57E
1001
ACAD_DSTYLE_DIMBREAK
1070
   391
1040
3.75
1001
ACAD_DSTYLE_DIMJAG
1070
   388
1040
1.5
1001
ACAD_DSTYLE_DIMTALN
1070
   392
1070
     0
1001
ACAD_DSTYLE_DIMARC_LENGTH_SYMBOL
1070
   379
1070
     2
1001
ACAD_DSTYLE_DIMEXT_LENGTH
1070
   378
1040
1.25
1001
ACAD_DSTYLE_DIMJOGGED_JOGANGLE_SYMBOL
1070
   384
1040
1.570796326794896
  0
DIMSTYLE
105
75C
330
A
100
AcDbSymbolTableRecord
100
AcDbDimStyleTableRecord
  2
1／8
 70
     0
 41
2.5
 42
0.25
 43
0.2
 44
1.25
 73
     0
 74
     0
 77
     3
 78
     8
 79
     2
140
3.0
141
0.0
143
0.03937007874016
144
8.0
147
0.625
171
     3
172
     1
178
     4
179
     1
271
     2
272
     2
274
     3
283
     0
284
     8
288
     1
289
     0
340
55
341
57E
342
57E
1001
ACAD_DSTYLE_DIMBREAK
1070
   391
1040
0.125
1001
ACAD_DSTYLE_DIMJAG
1070
   388
1040
1.5
1001
ACAD_DSTYLE_DIMTALN
1070
   392
1070
     0
1001
ACAD_DSTYLE_DIMARC_LENGTH_SYMBOL
1070
   379
1070
     2
1001
ACAD_DSTYLE_DIMEXT_LENGTH
1070
   378
1040
1.25
1001
ACAD_DSTYLE_DIMJOGGED_JOGANGLE_SYMBOL
1070
   384
1040
1.570796326794896
  0
ENDTAB
  0
TABLE
  2
BLOCK_RECORD
  5
1
330
0
100
AcDbSymbolTable
 70
    20
  0
BLOCK_RECORD
  5
6B
102
{ACAD_XDICTIONARY
360
8EF
102
}
330
1
100
AcDbSymbolTableRecord
100
AcDbBlockTableRecord
  2
*Model_Space
340
6E
  0
BLOCK_RECORD
  5
67
330
1
100
AcDbSymbolTableRecord
100
AcDbBlockTableRecord
  2
*Paper_Space
340
6A
  0
BLOCK_RECORD
  5
57E
330
1
100
AcDbSymbolTableRecord
100
AcDbBlockTableRecord
  2
_Open30
340
0
102
{BLKREFS
331
EA0
331
EA1
331
EAB
331
EAC
331
EB6
331
EB7
331
EC1
331
EC2
331
ECC
331
ECD
331
ED7
331
ED8
331
EE2
331
EE3
331
EED
331
EEE
331
EF8
331
EF9
331
F01
331
F02
331
FA9
331
FAA
331
FB2
331
FB3
331
FBB
331
FBC
331
FC4
331
FC5
331
FCD
331
FCE
331
FD6
331
FD7
331
FDF
331
FE0
331
FE8
331
FE9
102
}
  0
BLOCK_RECORD
  5
733
330
1
100
AcDbSymbolTableRecord
100
AcDbBlockTableRecord
  2
*D1
340
0
  0
BLOCK_RECORD
  5
76F
330
1
100
AcDbSymbolTableRecord
100
AcDbBlockTableRecord
  2
*D2
340
0
  0
BLOCK_RECORD
  5
77B
330
1
100
AcDbSymbolTableRecord
100
AcDbBlockTableRecord
  2
*D3
340
0
  0
BLOCK_RECORD
  5
787
330
1
100
AcDbSymbolTableRecord
100
AcDbBlockTableRecord
  2
*D4
340
0
  0
BLOCK_RECORD
  5
7A5
330
1
100
AcDbSymbolTableRecord
100
AcDbBlockTableRecord
  2
*D5
340
0
  0
BLOCK_RECORD
  5
7BA
330
1
100
AcDbSymbolTableRecord
100
AcDbBlockTableRecord
  2
*D6
340
0
  0
BLOCK_RECORD
  5
7CF
330
1
100
AcDbSymbolTableRecord
100
AcDbBlockTableRecord
  2
*D7
340
0
  0
BLOCK_RECORD
  5
7DB
330
1
100
AcDbSymbolTableRecord
100
AcDbBlockTableRecord
  2
*D8
340
0
  0
BLOCK_RECORD
  5
E11
330
1
100
AcDbSymbolTableRecord
100
AcDbBlockTableRecord
  2
*D9
340
0
  0
BLOCK_RECORD
  5
E1F
330
1
100
AcDbSymbolTableRecord
100
AcDbBlockTableRecord
  2
*D10
340
0
  0
BLOCK_RECORD
  5
E2D
330
1
100
AcDbSymbolTableRecord
100
AcDbBlockTableRecord
  2
*D11
340
0
  0
BLOCK_RECORD
  5
E3B
330
1
100
AcDbSymbolTableRecord
100
AcDbBlockTableRecord
  2
*D12
340
0
  0
BLOCK_RECORD
  5
E49
330
1
100
AcDbSymbolTableRecord
100
AcDbBlockTableRecord
  2
*D13
340
0
  0
BLOCK_RECORD
  5
E57
330
1
100
AcDbSymbolTableRecord
100
AcDbBlockTableRecord
  2
*D14
340
0
  0
BLOCK_RECORD
  5
E65
330
1
100
AcDbSymbolTableRecord
100
AcDbBlockTableRecord
  2
*D15
340
0
  0
BLOCK_RECORD
  5
E73
330
1
100
AcDbSymbolTableRecord
100
AcDbBlockTableRecord
  2
*D16
340
0
  0
BLOCK_RECORD
  5
E81
330
1
100
AcDbSymbolTableRecord
100
AcDbBlockTableRecord
  2
*D17
340
0
  0
BLOCK_RECORD
  5
E8F
330
1
100
AcDbSymbolTableRecord
100
AcDbBlockTableRecord
  2
*D18
340
0
  0
ENDTAB
  0
ENDSEC
  0
SECTION
  2
BLOCKS
  0
BLOCK
  5
6C
330
6B
100
AcDbEntity
  8
0
100
AcDbBlockBegin
  2
*Model_Space
 70
     0
 10
0.0
 20
0.0
 30
0.0
  3
*Model_Space
  1

  0
ENDBLK
  5
6D
330
6B
100
AcDbEntity
  8
0
100
AcDbBlockEnd
  0
BLOCK
  5
68
330
67
100
AcDbEntity
 67
     1
  8
0
100
AcDbBlockBegin
  2
*Paper_Space
 70
     0
 10
0.0
 20
0.0
 30
0.0
  3
*Paper_Space
  1

  0
ENDBLK
  5
69
330
67
100
AcDbEntity
 67
     1
  8
0
100
AcDbBlockEnd
  0
BLOCK
  5
57F
330
57E
100
AcDbEntity
  8
0
100
AcDbBlockBegin
  2
_Open30
 70
     0
 10
0.0
 20
0.0
 30
0.0
  3
_Open30
  1

  0
LINE
  5
580
330
57E
100
AcDbEntity
  8
0
  6
ByBlock
 62
     0
370
    -2
100
AcDbLine
 10
-1.0
 20
0.267949
 30
0.0
 11
0.0
 21
0.0
 31
0.0
  0
LINE
  5
581
330
57E
100
AcDbEntity
  8
0
  6
ByBlock
 62
     0
370
    -2
100
AcDbLine
 10
0.0
 20
0.0
 30
0.0
 11
-1.0
 21
-0.267949
 31
0.0
  0
LINE
  5
582
330
57E
100
AcDbEntity
  8
0
  6
ByBlock
 62
     0
370
    -2
100
AcDbLine
 10
0.0
 20
0.0
 30
0.0
 11
-1.0
 21
0.0
 31
0.0
  0
ENDBLK
  5
583
330
57E
100
AcDbEntity
  8
0
100
AcDbBlockEnd
  0
BLOCK
  5
734
330
733
100
AcDbEntity
  8
0
100
AcDbBlockBegin
  2
*D1
 70
     1
 10
0.0
 20
0.0
 30
0.0
  3
*D1
  1

  0
LINE
  5
FA6
330
733
100
AcDbEntity
  8
0
 62
     0
370
    -2
100
AcDbLine
 10
-53.25095699999999
 20
71.39753899999999
 30
0.0
 11
-53.25095699999999
 21
84.695025
 31
0.0
  0
LINE
  5
FA7
330
733
100
AcDbEntity
  8
0
 62
     0
370
    -2
100
AcDbLine
 10
-26.996457
 20
71.39753899999999
 30
0.0
 11
-26.996457
 21
84.695025
 31
0.0
  0
LINE
  5
FA8
330
733
100
AcDbEntity
  8
0
 62
     0
370
    -2
100
AcDbLine
 10
-50.75095699999999
 20
83.445025
 30
0.0
 11
-29.496457
 21
83.445025
 31
0.0
  0
INSERT
  5
FA9
330
733
100
AcDbEntity
  8
0
 62
     0
370
    -2
100
AcDbBlockReference
  2
_Open30
 10
-53.25095699999999
 20
83.445025
 30
0.0
 41
2.5
 42
2.5
 43
2.5
 50
180.0
  0
INSERT
  5
FAA
330
733
100
AcDbEntity
  8
0
 62
     0
370
    -2
100
AcDbBlockReference
  2
_Open30
 10
-26.996457
 20
83.445025
 30
0.0
 41
2.5
 42
2.5
 43
2.5
  0
MTEXT
  5
FAB
330
733
100
AcDbEntity
  8
0
 62
     4
100
AcDbMText
 10
-40.12370699999999
 20
85.57002500000001
 30
0.0
 40
3.0
 41
0.0
 71
     5
 72
     1
  1
210
 73
     1
 44
1.0
1001
ACAD
1000
MTEXTBEGIN
1070
    73
1070
     1
1070
    44
1040
1.0
1070
    74
1070
     0
1000
MTEXTEND
  0
POINT
  5
FAC
330
733
100
AcDbEntity
  8
Defpoints
 62
     0
100
AcDbPoint
 10
-53.25095699999999
 20
71.147539
 30
0.0
  0
POINT
  5
FAD
330
733
100
AcDbEntity
  8
Defpoints
 62
     0
100
AcDbPoint
 10
-26.996457
 20
71.147539
 30
0.0
  0
POINT
  5
FAE
330
733
100
AcDbEntity
  8
Defpoints
 62
     0
100
AcDbPoint
 10
-26.996457
 20
83.445025
 30
0.0
  0
ENDBLK
  5
735
330
733
100
AcDbEntity
  8
0
100
AcDbBlockEnd
  0
BLOCK
  5
770
330
76F
100
AcDbEntity
  8
0
100
AcDbBlockBegin
  2
*D2
 70
     1
 10
0.0
 20
0.0
 30
0.0
  3
*D2
  1

  0
LINE
  5
FAF
330
76F
100
AcDbEntity
  8
0
 62
     0
370
    -2
100
AcDbLine
 10
-11.880317
 20
1.422551
 30
0.0
 11
9.76676599999998
 21
1.422550999999993
 31
0.0
  0
LINE
  5
FB0
330
76F
100
AcDbEntity
  8
0
 62
     0
370
    -2
100
AcDbLine
 10
-32.021457
 20
76.422539
 30
0.0
 11
9.766766
 21
76.42253899999999
 31
0.0
  0
LINE
  5
FB1
330
76F
100
AcDbEntity
  8
0
 62
     0
370
    -2
100
AcDbLine
 10
8.516765999999982
 20
3.922550999999994
 30
0.0
 11
8.516765999999998
 21
73.92253899999999
 31
0.0
  0
INSERT
  5
FB2
330
76F
100
AcDbEntity
  8
0
 62
     0
370
    -2
100
AcDbBlockReference
  2
_Open30
 10
8.516765999999982
 20
1.422550999999994
 30
0.0
 41
2.5
 42
2.5
 43
2.5
 50
270.0
  0
INSERT
  5
FB3
330
76F
100
AcDbEntity
  8
0
 62
     0
370
    -2
100
AcDbBlockReference
  2
_Open30
 10
8.516766
 20
76.42253899999999
 30
0.0
 41
2.5
 42
2.5
 43
2.5
 50
90.0
  0
MTEXT
  5
FB4
330
76F
100
AcDbEntity
  8
0
 62
     4
100
AcDbMText
 10
6.391765999999985
 20
38.92254499999999
 30
0.0
 40
3.0
 41
0.0
 71
     5
 72
     1
  1
600
 11
0.0000000000000001
 21
1.0
 31
0.0
 73
     1
 44
1.0
1001
ACAD
1000
MTEXTBEGIN
1070
    73
1070
     1
1070
    44
1040
1.0
1070
    74
1070
     0
1000
MTEXTEND
  0
POINT
  5
FB5
330
76F
100
AcDbEntity
  8
Defpoints
 62
     0
100
AcDbPoint
 10
-12.130317
 20
1.422551
 30
0.0
  0
POINT
  5
FB6
330
76F
100
AcDbEntity
  8
Defpoints
 62
     0
100
AcDbPoint
 10
-32.271457
 20
76.422539
 30
0.0
  0
POINT
  5
FB7
330
76F
100
AcDbEntity
  8
Defpoints
 62
     0
100
AcDbPoint
 10
8.516766
 20
76.42253899999999
 30
0.0
  0
ENDBLK
  5
771
330
76F
100
AcDbEntity
  8
0
100
AcDbBlockEnd
  0
BLOCK
  5
77C
330
77B
100
AcDbEntity
  8
0
100
AcDbBlockBegin
  2
*D3
 70
     1
 10
0.0
 20
0.0
 30
0.0
  3
*D3
  1

  0
LINE
  5
FB8
330
77B
100
AcDbEntity
  8
0
 62
     0
370
    -2
100
AcDbLine
 10
-11.892096
 20
1.422551
 30
0.0
 11
0.9218639999999908
 21
1.422550999999996
 31
0.0
  0
LINE
  5
FB9
330
77B
100
AcDbEntity
  8
0
 62
     0
370
    -2
100
AcDbLine
 10
-9.874207
 20
38.922539
 30
0.0
 11
0.9218639999999991
 21
38.922539
 31
0.0
  0
LINE
  5
FBA
330
77B
100
AcDbEntity
  8
0
 62
     0
370
    -2
100
AcDbLine
 10
-0.3281360000000078
 20
3.922550999999996
 30
0.0
 11
-0.3281360000000006
 21
36.422539
 31
0.0
  0
INSERT
  5
FBB
330
77B
100
AcDbEntity
  8
0
 62
     0
370
    -2
100
AcDbBlockReference
  2
_Open30
 10
-0.3281360000000084
 20
1.422550999999996
 30
0.0
 41
2.5
 42
2.5
 43
2.5
 50
270.0
  0
INSERT
  5
FBC
330
77B
100
AcDbEntity
  8
0
 62
     0
370
    -2
100
AcDbBlockReference
  2
_Open30
 10
-0.328136
 20
38.922539
 30
0.0
 41
2.5
 42
2.5
 43
2.5
 50
90.0
  0
MTEXT
  5
FBD
330
77B
100
AcDbEntity
  8
0
 62
     4
100
AcDbMText
 10
-2.453136000000007
 20
20.172545
 30
0.0
 40
3.0
 41
0.0
 71
     5
 72
     1
  1
300
 11
0.0000000000000001
 21
1.0
 31
0.0
 73
     1
 44
1.0
1001
ACAD
1000
MTEXTBEGIN
1070
    73
1070
     1
1070
    44
1040
1.0
1070
    74
1070
     0
1000
MTEXTEND
  0
POINT
  5
FBE
330
77B
100
AcDbEntity
  8
Defpoints
 62
     0
100
AcDbPoint
 10
-12.142096
 20
1.422551
 30
0.0
  0
POINT
  5
FBF
330
77B
100
AcDbEntity
  8
Defpoints
 62
     0
100
AcDbPoint
 10
-10.124207
 20
38.922539
 30
0.0
  0
POINT
  5
FC0
330
77B
100
AcDbEntity
  8
Defpoints
 62
     0
100
AcDbPoint
 10
-0.328136
 20
38.922539
 30
0.0
  0
ENDBLK
  5
77D
330
77B
100
AcDbEntity
  8
0
100
AcDbBlockEnd
  0
BLOCK
  5
788
330
787
100
AcDbEntity
  8
0
100
AcDbBlockBegin
  2
*D4
 70
     1
 10
0.0
 20
0.0
 30
0.0
  3
*D4
  1

  0
LINE
  5
FC1
330
787
100
AcDbEntity
  8
0
 62
     0
370
    -2
100
AcDbLine
 10
-69.49870699999999
 20
1.172551
 30
0.0
 11
-69.49870699999999
 21
-8.292944
 31
0.0
  0
LINE
  5
FC2
330
787
100
AcDbEntity
  8
0
 62
     0
370
    -2
100
AcDbLine
 10
-10.749707
 20
1.172551
 30
0.0
 11
-10.749707
 21
-8.292944
 31
0.0
  0
LINE
  5
FC3
330
787
100
AcDbEntity
  8
0
 62
     0
370
    -2
100
AcDbLine
 10
-66.99870699999999
 20
-7.042944
 30
0.0
 11
-13.249707
 21
-7.042944
 31
0.0
  0
INSERT
  5
FC4
330
787
100
AcDbEntity
  8
0
 62
     0
370
    -2
100
AcDbBlockReference
  2
_Open30
 10
-69.49870699999999
 20
-7.042944
 30
0.0
 41
2.5
 42
2.5
 43
2.5
 50
180.0
  0
INSERT
  5
FC5
330
787
100
AcDbEntity
  8
0
 62
     0
370
    -2
100
AcDbBlockReference
  2
_Open30
 10
-10.749707
 20
-7.042944
 30
0.0
 41
2.5
 42
2.5
 43
2.5
  0
MTEXT
  5
FC6
330
787
100
AcDbEntity
  8
0
 62
     4
100
AcDbMText
 10
-40.12420699999999
 20
-4.917944
 30
0.0
 40
3.0
 41
0.0
 71
     5
 72
     1
  1
470
 73
     1
 44
1.0
1001
ACAD
1000
MTEXTBEGIN
1070
    73
1070
     1
1070
    44
1040
1.0
1070
    74
1070
     0
1000
MTEXTEND
  0
POINT
  5
FC7
330
787
100
AcDbEntity
  8
Defpoints
 62
     0
100
AcDbPoint
 10
-69.49870699999999
 20
1.422551
 30
0.0
  0
POINT
  5
FC8
330
787
100
AcDbEntity
  8
Defpoints
 62
     0
100
AcDbPoint
 10
-10.749707
 20
1.422551
 30
0.0
  0
POINT
  5
FC9
330
787
100
AcDbEntity
  8
Defpoints
 62
     0
100
AcDbPoint
 10
-10.749707
 20
-7.042944
 30
0.0
  0
ENDBLK
  5
789
330
787
100
AcDbEntity
  8
0
100
AcDbBlockEnd
  0
BLOCK
  5
7A6
330
7A5
100
AcDbEntity
  8
0
100
AcDbBlockBegin
  2
*D5
 70
     1
 10
0.0
 20
0.0
 30
0.0
  3
*D5
  1

  0
LINE
  5
FCA
330
7A5
100
AcDbEntity
  8
0
 62
     0
370
    -2
100
AcDbLine
 10
76.649969
 20
9.173289
 30
0.0
 11
76.649969
 21
-9.247149
 31
0.0
  0
LINE
  5
FCB
330
7A5
100
AcDbEntity
  8
0
 62
     0
370
    -2
100
AcDbLine
 10
117.149969
 20
9.173289
 30
0.0
 11
117.149969
 21
-9.247149
 31
0.0
  0
LINE
  5
FCC
330
7A5
100
AcDbEntity
  8
0
 62
     0
370
    -2
100
AcDbLine
 10
79.149969
 20
-7.997149
 30
0.0
 11
114.649969
 21
-7.997149
 31
0.0
  0
INSERT
  5
FCD
330
7A5
100
AcDbEntity
  8
0
 62
     0
370
    -2
100
AcDbBlockReference
  2
_Open30
 10
76.649969
 20
-7.997149
 30
0.0
 41
2.5
 42
2.5
 43
2.5
 50
180.0
  0
INSERT
  5
FCE
330
7A5
100
AcDbEntity
  8
0
 62
     0
370
    -2
100
AcDbBlockReference
  2
_Open30
 10
117.149969
 20
-7.997149
 30
0.0
 41
2.5
 42
2.5
 43
2.5
  0
MTEXT
  5
FCF
330
7A5
100
AcDbEntity
  8
0
 62
     4
100
AcDbMText
 10
96.899969
 20
-5.872149
 30
0.0
 40
3.0
 41
0.0
 71
     5
 72
     1
  1
325
 73
     1
 44
1.0
1001
ACAD
1000
MTEXTBEGIN
1070
    73
1070
     1
1070
    44
1040
1.0
1070
    74
1070
     0
1000
MTEXTEND
  0
POINT
  5
FD0
330
7A5
100
AcDbEntity
  8
Defpoints
 62
     0
100
AcDbPoint
 10
76.649969
 20
9.423289
 30
0.0
  0
POINT
  5
FD1
330
7A5
100
AcDbEntity
  8
Defpoints
 62
     0
100
AcDbPoint
 10
117.149969
 20
9.423289
 30
0.0
  0
POINT
  5
FD2
330
7A5
100
AcDbEntity
  8
Defpoints
 62
     0
100
AcDbPoint
 10
117.149969
 20
-7.997149
 30
0.0
  0
ENDBLK
  5
7A7
330
7A5
100
AcDbEntity
  8
0
100
AcDbBlockEnd
  0
BLOCK
  5
7BB
330
7BA
100
AcDbEntity
  8
0
100
AcDbBlockBegin
  2
*D6
 70
     1
 10
0.0
 20
0.0
 30
0.0
  3
*D6
  1

  0
LINE
  5
FD3
330
7BA
100
AcDbEntity
  8
0
 62
     0
370
    -2
100
AcDbLine
 10
50.011786
 20
9.710214
 30
0.0
 11
50.011786
 21
-15.702066
 31
0.0
  0
LINE
  5
FD4
330
7BA
100
AcDbEntity
  8
0
 62
     0
370
    -2
100
AcDbLine
 10
122.549969
 20
9.710214
 30
0.0
 11
122.549969
 21
-15.702066
 31
0.0
  0
LINE
  5
FD5
330
7BA
100
AcDbEntity
  8
0
 62
     0
370
    -2
100
AcDbLine
 10
52.511786
 20
-14.452066
 30
0.0
 11
120.049969
 21
-14.452066
 31
0.0
  0
INSERT
  5
FD6
330
7BA
100
AcDbEntity
  8
0
 62
     0
370
    -2
100
AcDbBlockReference
  2
_Open30
 10
50.011786
 20
-14.452066
 30
0.0
 41
2.5
 42
2.5
 43
2.5
 50
180.0
  0
INSERT
  5
FD7
330
7BA
100
AcDbEntity
  8
0
 62
     0
370
    -2
100
AcDbBlockReference
  2
_Open30
 10
122.549969
 20
-14.452066
 30
0.0
 41
2.5
 42
2.5
 43
2.5
  0
MTEXT
  5
FD8
330
7BA
100
AcDbEntity
  8
0
 62
     4
100
AcDbMText
 10
86.2808775
 20
-12.327066
 30
0.0
 40
3.0
 41
0.0
 71
     5
 72
     1
  1
580
 73
     1
 44
1.0
1001
ACAD
1000
MTEXTBEGIN
1070
    73
1070
     1
1070
    44
1040
1.0
1070
    74
1070
     0
1000
MTEXTEND
  0
POINT
  5
FD9
330
7BA
100
AcDbEntity
  8
Defpoints
 62
     0
100
AcDbPoint
 10
50.011786
 20
9.960214
 30
0.0
  0
POINT
  5
FDA
330
7BA
100
AcDbEntity
  8
Defpoints
 62
     0
100
AcDbPoint
 10
122.549969
 20
9.960214
 30
0.0
  0
POINT
  5
FDB
330
7BA
100
AcDbEntity
  8
Defpoints
 62
     0
100
AcDbPoint
 10
122.549969
 20
-14.452066
 30
0.0
  0
ENDBLK
  5
7BC
330
7BA
100
AcDbEntity
  8
0
100
AcDbBlockEnd
  0
BLOCK
  5
7D0
330
7CF
100
AcDbEntity
  8
0
100
AcDbBlockBegin
  2
*D7
 70
     1
 10
0.0
 20
0.0
 30
0.0
  3
*D7
  1

  0
LINE
  5
FDC
330
7CF
100
AcDbEntity
  8
0
 62
     0
370
    -2
100
AcDbLine
 10
75.649969
 20
19.298001
 30
0.0
 11
28.87655199999999
 21
19.29800100000001
 31
0.0
  0
LINE
  5
FDD
330
7CF
100
AcDbEntity
  8
0
 62
     0
370
    -2
100
AcDbLine
 10
75.649969
 20
58.548001
 30
0.0
 11
28.87655200000001
 21
58.54800100000001
 31
0.0
  0
LINE
  5
FDE
330
7CF
100
AcDbEntity
  8
0
 62
     0
370
    -2
100
AcDbLine
 10
30.12655199999999
 20
21.79800100000001
 30
0.0
 11
30.126552
 21
56.04800100000001
 31
0.0
  0
INSERT
  5
FDF
330
7CF
100
AcDbEntity
  8
0
 62
     0
370
    -2
100
AcDbBlockReference
  2
_Open30
 10
30.12655199999999
 20
19.29800100000001
 30
0.0
 41
2.5
 42
2.5
 43
2.5
 50
270.0
  0
INSERT
  5
FE0
330
7CF
100
AcDbEntity
  8
0
 62
     0
370
    -2
100
AcDbBlockReference
  2
_Open30
 10
30.126552
 20
58.54800100000001
 30
0.0
 41
2.5
 42
2.5
 43
2.5
 50
90.0
  0
MTEXT
  5
FE1
330
7CF
100
AcDbEntity
  8
0
 62
     4
100
AcDbMText
 10
28.00155199999999
 20
38.92300100000002
 30
0.0
 40
3.0
 41
0.0
 71
     5
 72
     1
  1
\U+03C6314
 11
0.0000000000000001
 21
1.0
 31
0.0
 73
     1
 44
1.0
1001
ACAD
1000
MTEXTBEGIN
1070
    73
1070
     1
1070
    44
1040
1.0
1070
    74
1070
     0
1000
MTEXTEND
  0
POINT
  5
FE2
330
7CF
100
AcDbEntity
  8
Defpoints
 62
     0
100
AcDbPoint
 10
75.899969
 20
19.298001
 30
0.0
  0
POINT
  5
FE3
330
7CF
100
AcDbEntity
  8
Defpoints
 62
     0
100
AcDbPoint
 10
75.899969
 20
58.548001
 30
0.0
  0
POINT
  5
FE4
330
7CF
100
AcDbEntity
  8
Defpoints
 62
     0
100
AcDbPoint
 10
30.126552
 20
58.54800100000001
 30
0.0
  0
ENDBLK
  5
7D1
330
7CF
100
AcDbEntity
  8
0
100
AcDbBlockEnd
  0
BLOCK
  5
7DC
330
7DB
100
AcDbEntity
  8
0
100
AcDbBlockBegin
  2
*D8
 70
     1
 10
0.0
 20
0.0
 30
0.0
  3
*D8
  1

  0
LINE
  5
FE5
330
7DB
100
AcDbEntity
  8
0
 62
     0
370
    -2
100
AcDbLine
 10
75.14996899999999
 20
8.922713999999997
 30
0.0
 11
19.33488299999998
 21
8.922714000000013
 31
0.0
  0
LINE
  5
FE6
330
7DB
100
AcDbEntity
  8
0
 62
     0
370
    -2
100
AcDbLine
 10
75.14996899999999
 20
68.922714
 30
0.0
 11
19.334883
 21
68.92271400000002
 31
0.0
  0
LINE
  5
FE7
330
7DB
100
AcDbEntity
  8
0
 62
     0
370
    -2
100
AcDbLine
 10
20.58488299999999
 20
11.42271400000001
 30
0.0
 11
20.584883
 21
66.42271400000002
 31
0.0
  0
INSERT
  5
FE8
330
7DB
100
AcDbEntity
  8
0
 62
     0
370
    -2
100
AcDbBlockReference
  2
_Open30
 10
20.58488299999999
 20
8.922714000000011
 30
0.0
 41
2.5
 42
2.5
 43
2.5
 50
270.0
  0
INSERT
  5
FE9
330
7DB
100
AcDbEntity
  8
0
 62
     0
370
    -2
100
AcDbBlockReference
  2
_Open30
 10
20.584883
 20
68.92271400000002
 30
0.0
 41
2.5
 42
2.5
 43
2.5
 50
90.0
  0
MTEXT
  5
FEA
330
7DB
100
AcDbEntity
  8
0
 62
     4
100
AcDbMText
 10
18.45988299999999
 20
38.92271400000002
 30
0.0
 40
3.0
 41
0.0
 71
     5
 72
     1
  1
\U+03C6480
 11
0.0000000000000001
 21
1.0
 31
0.0
 73
     1
 44
1.0
1001
ACAD
1000
MTEXTBEGIN
1070
    73
1070
     1
1070
    44
1040
1.0
1070
    74
1070
     0
1000
MTEXTEND
  0
POINT
  5
FEB
330
7DB
100
AcDbEntity
  8
Defpoints
 62
     0
100
AcDbPoint
 10
75.399969
 20
8.922713999999997
 30
0.0
  0
POINT
  5
FEC
330
7DB
100
AcDbEntity
  8
Defpoints
 62
     0
100
AcDbPoint
 10
75.399969
 20
68.922714
 30
0.0
  0
POINT
  5
FED
330
7DB
100
AcDbEntity
  8
Defpoints
 62
     0
100
AcDbPoint
 10
20.584883
 20
68.92271400000002
 30
0.0
  0
ENDBLK
  5
7DD
330
7DB
100
AcDbEntity
  8
0
100
AcDbBlockEnd
  0
BLOCK
  5
E12
330
E11
100
AcDbEntity
  8
0
100
AcDbBlockBegin
  2
*D9
 70
     1
 10
0.0
 20
0.0
 30
0.0
  3
*D9
  1

  0
LINE
  5
E9B
330
E11
100
AcDbEntity
  8
0
 62
     0
370
    -2
100
AcDbLine
 10
443.9539287410128
 20
53.25901455652125
 30
0.0
 11
443.9539287410128
 21
50.34938313451243
 31
0.0
  0
LINE
  5
E9C
330
E11
100
AcDbEntity
  8
0
 62
     0
370
    -2
100
AcDbLine
 10
441.4967416868925
 20
53.25901455652125
 30
0.0
 11
441.4967416868925
 21
50.34938313451243
 31
0.0
  0
LINE
  5
E9D
330
E11
100
AcDbEntity
  8
0
 62
     0
370
    -2
100
AcDbLine
 10
446.4539287410126
 20
51.59938313451243
 30
0.0
 11
448.9539287410128
 21
51.59938313451243
 31
0.0
  0
LINE
  5
E9E
330
E11
100
AcDbEntity
  8
0
 62
     0
370
    -2
100
AcDbLine
 10
438.9967416868924
 20
51.59938313451243
 30
0.0
 11
426.2467416868924
 21
51.59938313451243
 31
0.0
  0
LINE
  5
E9F
330
E11
100
AcDbEntity
  8
0
 62
     0
370
    -2
100
AcDbLine
 10
443.9539287410128
 20
51.59938313451243
 30
0.0
 11
441.4967416868925
 21
51.59938313451243
 31
0.0
  0
INSERT
  5
EA0
330
E11
100
AcDbEntity
  8
0
 62
     0
370
    -2
100
AcDbBlockReference
  2
_Open30
 10
443.9539287410128
 20
51.59938313451243
 30
0.0
 41
2.5
 42
2.5
 43
2.5
 50
180.0
  0
INSERT
  5
EA1
330
E11
100
AcDbEntity
  8
0
 62
     0
370
    -2
100
AcDbBlockReference
  2
_Open30
 10
441.4967416868925
 20
51.59938313451243
 30
0.0
 41
2.5
 42
2.5
 43
2.5
  0
MTEXT
  5
EA2
330
E11
100
AcDbEntity
  8
0
 62
     4
100
AcDbMText
 10
431.3717416868923
 20
53.72438313451244
 30
0.0
 40
3.0
 41
0.0
 71
     5
 72
     1
  1
2.46
 73
     1
 44
1.0
1001
ACAD
1000
MTEXTBEGIN
1070
    73
1070
     1
1070
    44
1040
1.0
1070
    74
1070
     0
1000
MTEXTEND
  0
POINT
  5
EA3
330
E11
100
AcDbEntity
  8
Defpoints
 62
     0
100
AcDbPoint
 10
443.9539287410128
 20
53.50901455652127
 30
0.0
  0
POINT
  5
EA4
330
E11
100
AcDbEntity
  8
Defpoints
 62
     0
100
AcDbPoint
 10
441.4967416868925
 20
53.50901455652127
 30
0.0
  0
POINT
  5
EA5
330
E11
100
AcDbEntity
  8
Defpoints
 62
     0
100
AcDbPoint
 10
441.4967416868925
 20
51.59938313451243
 30
0.0
  0
ENDBLK
  5
E13
330
E11
100
AcDbEntity
  8
0
100
AcDbBlockEnd
  0
BLOCK
  5
E20
330
E1F
100
AcDbEntity
  8
0
100
AcDbBlockBegin
  2
*D10
 70
     1
 10
0.0
 20
0.0
 30
0.0
  3
*D10
  1

  0
LINE
  5
EA6
330
E1F
100
AcDbEntity
  8
0
 62
     0
370
    -2
100
AcDbLine
 10
445.592053647086
 20
47.80292498375888
 30
0.0
 11
445.592053647086
 21
45.25703291429556
 31
0.0
  0
LINE
  5
EA7
330
E1F
100
AcDbEntity
  8
0
 62
     0
370
    -2
100
AcDbLine
 10
442.4978178489431
 20
47.80292498375888
 30
0.0
 11
442.4978178489431
 21
45.25703291429556
 31
0.0
  0
LINE
  5
EA8
330
E1F
100
AcDbEntity
  8
0
 62
     0
370
    -2
100
AcDbLine
 10
448.0920536470859
 20
46.50703291429556
 30
0.0
 11
450.592053647086
 21
46.50703291429556
 31
0.0
  0
LINE
  5
EA9
330
E1F
100
AcDbEntity
  8
0
 62
     0
370
    -2
100
AcDbLine
 10
439.9978178489431
 20
46.50703291429556
 30
0.0
 11
426.1644845156096
 21
46.50703291429556
 31
0.0
  0
LINE
  5
EAA
330
E1F
100
AcDbEntity
  8
0
 62
     0
370
    -2
100
AcDbLine
 10
445.592053647086
 20
46.50703291429556
 30
0.0
 11
442.4978178489431
 21
46.50703291429556
 31
0.0
  0
INSERT
  5
EAB
330
E1F
100
AcDbEntity
  8
0
 62
     0
370
    -2
100
AcDbBlockReference
  2
_Open30
 10
445.592053647086
 20
46.50703291429556
 30
0.0
 41
2.5
 42
2.5
 43
2.5
 50
180.0
  0
INSERT
  5
EAC
330
E1F
100
AcDbEntity
  8
0
 62
     0
370
    -2
100
AcDbBlockReference
  2
_Open30
 10
442.4978178489431
 20
46.50703291429556
 30
0.0
 41
2.5
 42
2.5
 43
2.5
  0
MTEXT
  5
EAD
330
E1F
100
AcDbEntity
  8
0
 62
     4
100
AcDbMText
 10
431.3728178489431
 20
48.38203291429556
 30
0.0
 40
2.5
 41
0.0
 71
     5
 72
     1
  1
15.47
  7
高2.5
 73
     1
 44
1.0
1001
ACAD
1000
MTEXTBEGIN
1070
    73
1070
     1
1070
    44
1040
1.0
1070
    74
1070
     0
1000
MTEXTEND
  0
POINT
  5
EAE
330
E1F
100
AcDbEntity
  8
Defpoints
 62
     0
100
AcDbPoint
 10
445.592053647086
 20
48.05292498375887
 30
0.0
  0
POINT
  5
EAF
330
E1F
100
AcDbEntity
  8
Defpoints
 62
     0
100
AcDbPoint
 10
442.4978178489431
 20
48.05292498375887
 30
0.0
  0
POINT
  5
EB0
330
E1F
100
AcDbEntity
  8
Defpoints
 62
     0
100
AcDbPoint
 10
442.4978178489431
 20
46.50703291429556
 30
0.0
  0
ENDBLK
  5
E21
330
E1F
100
AcDbEntity
  8
0
100
AcDbBlockEnd
  0
BLOCK
  5
E2E
330
E2D
100
AcDbEntity
  8
0
100
AcDbBlockBegin
  2
*D11
 70
     1
 10
0.0
 20
0.0
 30
0.0
  3
*D11
  1

  0
LINE
  5
EB1
330
E2D
100
AcDbEntity
  8
0
 62
     0
370
    -2
100
AcDbLine
 10
447.3211852551713
 20
42.3468352679124
 30
0.0
 11
447.3211852551713
 21
40.07374760554511
 31
0.0
  0
LINE
  5
EB2
330
E2D
100
AcDbEntity
  8
0
 62
     0
370
    -2
100
AcDbLine
 10
443.3168803019795
 20
42.3468352679124
 30
0.0
 11
443.3168803019795
 21
40.07374760554511
 31
0.0
  0
LINE
  5
EB3
330
E2D
100
AcDbEntity
  8
0
 62
     0
370
    -2
100
AcDbLine
 10
449.8211852551714
 20
41.32374760554511
 30
0.0
 11
452.3211852551715
 21
41.32374760554511
 31
0.0
  0
LINE
  5
EB4
330
E2D
100
AcDbEntity
  8
0
 62
     0
370
    -2
100
AcDbLine
 10
440.8168803019797
 20
41.32374760554511
 30
0.0
 11
429.0668803019796
 21
41.32374760554511
 31
0.0
  0
LINE
  5
EB5
330
E2D
100
AcDbEntity
  8
0
 62
     0
370
    -2
100
AcDbLine
 10
447.3211852551713
 20
41.32374760554511
 30
0.0
 11
443.3168803019795
 21
41.32374760554511
 31
0.0
  0
INSERT
  5
EB6
330
E2D
100
AcDbEntity
  8
0
 62
     0
370
    -2
100
AcDbBlockReference
  2
_Open30
 10
447.3211852551713
 20
41.32374760554511
 30
0.0
 41
2.5
 42
2.5
 43
2.5
 50
180.0
  0
INSERT
  5
EB7
330
E2D
100
AcDbEntity
  8
0
 62
     0
370
    -2
100
AcDbBlockReference
  2
_Open30
 10
443.3168803019795
 20
41.32374760554511
 30
0.0
 41
2.5
 42
2.5
 43
2.5
  0
MTEXT
  5
EB8
330
E2D
100
AcDbEntity
  8
0
 62
     4
100
AcDbMText
 10
433.6918803019797
 20
43.54874760554511
 30
0.0
 40
3.2
 41
0.0
 71
     5
 72
     1
  1
8.01
  7
高3.2
 73
     1
 44
1.0
1001
ACAD
1000
MTEXTBEGIN
1070
    73
1070
     1
1070
    44
1040
1.0
1070
    74
1070
     0
1000
MTEXTEND
  0
POINT
  5
EB9
330
E2D
100
AcDbEntity
  8
Defpoints
 62
     0
100
AcDbPoint
 10
447.3211852551713
 20
42.5968352679124
 30
0.0
  0
POINT
  5
EBA
330
E2D
100
AcDbEntity
  8
Defpoints
 62
     0
100
AcDbPoint
 10
443.3168803019795
 20
42.5968352679124
 30
0.0
  0
POINT
  5
EBB
330
E2D
100
AcDbEntity
  8
Defpoints
 62
     0
100
AcDbPoint
 10
443.3168803019795
 20
41.32374760554511
 30
0.0
  0
ENDBLK
  5
E2F
330
E2D
100
AcDbEntity
  8
0
100
AcDbBlockEnd
  0
BLOCK
  5
E3C
330
E3B
100
AcDbEntity
  8
0
100
AcDbBlockBegin
  2
*D12
 70
     1
 10
0.0
 20
0.0
 30
0.0
  3
*D12
  1

  0
LINE
  5
EBC
330
E3B
100
AcDbEntity
  8
0
 62
     0
370
    -2
100
AcDbLine
 10
447.230178553159
 20
37.0726152998808
 30
0.0
 11
447.230178553159
 21
35.2542017924244
 31
0.0
  0
LINE
  5
EBD
330
E3B
100
AcDbEntity
  8
0
 62
     0
370
    -2
100
AcDbLine
 10
442.4978178489431
 20
37.0726152998808
 30
0.0
 11
442.4978178489431
 21
35.2542017924244
 31
0.0
  0
LINE
  5
EBE
330
E3B
100
AcDbEntity
  8
0
 62
     0
370
    -2
100
AcDbLine
 10
449.7301785531591
 20
36.5042017924244
 30
0.0
 11
452.2301785531592
 21
36.5042017924244
 31
0.0
  0
LINE
  5
EBF
330
E3B
100
AcDbEntity
  8
0
 62
     0
370
    -2
100
AcDbLine
 10
439.9978178489431
 20
36.5042017924244
 30
0.0
 11
418.247817848943
 21
36.5042017924244
 31
0.0
  0
LINE
  5
EC0
330
E3B
100
AcDbEntity
  8
0
 62
     0
370
    -2
100
AcDbLine
 10
447.230178553159
 20
36.5042017924244
 30
0.0
 11
442.4978178489431
 21
36.5042017924244
 31
0.0
  0
INSERT
  5
EC1
330
E3B
100
AcDbEntity
  8
0
 62
     0
370
    -2
100
AcDbBlockReference
  2
_Open30
 10
447.230178553159
 20
36.5042017924244
 30
0.0
 41
2.5
 42
2.5
 43
2.5
 50
180.0
  0
INSERT
  5
EC2
330
E3B
100
AcDbEntity
  8
0
 62
     0
370
    -2
100
AcDbBlockReference
  2
_Open30
 10
442.4978178489431
 20
36.5042017924244
 30
0.0
 41
2.5
 42
2.5
 43
2.5
  0
MTEXT
  5
EC3
330
E3B
100
AcDbEntity
  8
0
 62
     4
100
AcDbMText
 10
427.8728178489431
 20
39.37920179242439
 30
0.0
 40
4.5
 41
0.0
 71
     5
 72
     1
  1
47.32
  7
高4.5
 73
     1
 44
1.0
1001
ACAD
1000
MTEXTBEGIN
1070
    73
1070
     1
1070
    44
1040
1.0
1070
    74
1070
     0
1000
MTEXTEND
  0
POINT
  5
EC4
330
E3B
100
AcDbEntity
  8
Defpoints
 62
     0
100
AcDbPoint
 10
447.230178553159
 20
37.32261529988079
 30
0.0
  0
POINT
  5
EC5
330
E3B
100
AcDbEntity
  8
Defpoints
 62
     0
100
AcDbPoint
 10
442.4978178489431
 20
37.32261529988079
 30
0.0
  0
POINT
  5
EC6
330
E3B
100
AcDbEntity
  8
Defpoints
 62
     0
100
AcDbPoint
 10
442.4978178489431
 20
36.5042017924244
 30
0.0
  0
ENDBLK
  5
E3D
330
E3B
100
AcDbEntity
  8
0
100
AcDbBlockEnd
  0
BLOCK
  5
E4A
330
E49
100
AcDbEntity
  8
0
100
AcDbBlockBegin
  2
*D13
 70
     1
 10
0.0
 20
0.0
 30
0.0
  3
*D13
  1

  0
LINE
  5
EC7
330
E49
100
AcDbEntity
  8
0
 62
     0
370
    -2
100
AcDbLine
 10
468.7078148211666
 20
53.25901455652125
 30
0.0
 11
468.7078148211666
 21
50.34938313451243
 31
0.0
  0
LINE
  5
EC8
330
E49
100
AcDbEntity
  8
0
 62
     0
370
    -2
100
AcDbLine
 10
466.2506277670463
 20
53.25901455652125
 30
0.0
 11
466.2506277670463
 21
50.34938313451243
 31
0.0
  0
LINE
  5
EC9
330
E49
100
AcDbEntity
  8
0
 62
     0
370
    -2
100
AcDbLine
 10
471.2078148211666
 20
51.59938313451243
 30
0.0
 11
473.7078148211666
 21
51.59938313451243
 31
0.0
  0
LINE
  5
ECA
330
E49
100
AcDbEntity
  8
0
 62
     0
370
    -2
100
AcDbLine
 10
463.7506277670462
 20
51.59938313451243
 30
0.0
 11
442.1506277670463
 21
51.59938313451243
 31
0.0
  0
LINE
  5
ECB
330
E49
100
AcDbEntity
  8
0
 62
     0
370
    -2
100
AcDbLine
 10
468.7078148211666
 20
51.59938313451243
 30
0.0
 11
466.2506277670463
 21
51.59938313451243
 31
0.0
  0
INSERT
  5
ECC
330
E49
100
AcDbEntity
  8
0
 62
     0
370
    -2
100
AcDbBlockReference
  2
_Open30
 10
468.7078148211666
 20
51.59938313451243
 30
0.0
 41
2.5
 42
2.5
 43
2.5
 50
180.0
  0
INSERT
  5
ECD
330
E49
100
AcDbEntity
  8
0
 62
     0
370
    -2
100
AcDbBlockReference
  2
_Open30
 10
466.2506277670463
 20
51.59938313451243
 30
0.0
 41
2.5
 42
2.5
 43
2.5
  0
MTEXT
  5
ECE
330
E49
100
AcDbEntity
  8
0
 62
     4
100
AcDbMText
 10
451.7006277670462
 20
55.37438313451243
 30
0.0
 40
6.299999999999998
 41
0.0
 71
     5
 72
     1
  1
0.25
  7
高6.3
 73
     1
 44
1.0
1001
ACAD
1000
MTEXTBEGIN
1070
    73
1070
     1
1070
    44
1040
1.0
1070
    74
1070
     0
1000
MTEXTEND
  0
POINT
  5
ECF
330
E49
100
AcDbEntity
  8
Defpoints
 62
     0
100
AcDbPoint
 10
468.7078148211666
 20
53.50901455652127
 30
0.0
  0
POINT
  5
ED0
330
E49
100
AcDbEntity
  8
Defpoints
 62
     0
100
AcDbPoint
 10
466.2506277670463
 20
53.50901455652127
 30
0.0
  0
POINT
  5
ED1
330
E49
100
AcDbEntity
  8
Defpoints
 62
     0
100
AcDbPoint
 10
466.2506277670463
 20
51.59938313451243
 30
0.0
  0
ENDBLK
  5
E4B
330
E49
100
AcDbEntity
  8
0
100
AcDbBlockEnd
  0
BLOCK
  5
E58
330
E57
100
AcDbEntity
  8
0
100
AcDbBlockBegin
  2
*D14
 70
     1
 10
0.0
 20
0.0
 30
0.0
  3
*D14
  1

  0
LINE
  5
ED2
330
E57
100
AcDbEntity
  8
0
 62
     0
370
    -2
100
AcDbLine
 10
470.3459397272398
 20
47.80292498375888
 30
0.0
 11
470.3459397272398
 21
45.25703291429556
 31
0.0
  0
LINE
  5
ED3
330
E57
100
AcDbEntity
  8
0
 62
     0
370
    -2
100
AcDbLine
 10
467.2517039290968
 20
47.80292498375888
 30
0.0
 11
467.2517039290968
 21
45.25703291429556
 31
0.0
  0
LINE
  5
ED4
330
E57
100
AcDbEntity
  8
0
 62
     0
370
    -2
100
AcDbLine
 10
472.8459397272398
 20
46.50703291429556
 30
0.0
 11
475.3459397272398
 21
46.50703291429556
 31
0.0
  0
LINE
  5
ED5
330
E57
100
AcDbEntity
  8
0
 62
     0
370
    -2
100
AcDbLine
 10
464.7517039290969
 20
46.50703291429556
 30
0.0
 11
452.7517039290969
 21
46.50703291429556
 31
0.0
  0
LINE
  5
ED6
330
E57
100
AcDbEntity
  8
0
 62
     0
370
    -2
100
AcDbLine
 10
470.3459397272398
 20
46.50703291429556
 30
0.0
 11
467.2517039290968
 21
46.50703291429556
 31
0.0
  0
INSERT
  5
ED7
330
E57
100
AcDbEntity
  8
0
 62
     0
370
    -2
100
AcDbBlockReference
  2
_Open30
 10
470.3459397272398
 20
46.50703291429556
 30
0.0
 41
2.5
 42
2.5
 43
2.5
 50
180.0
  0
INSERT
  5
ED8
330
E57
100
AcDbEntity
  8
0
 62
     0
370
    -2
100
AcDbBlockReference
  2
_Open30
 10
467.2517039290968
 20
46.50703291429556
 30
0.0
 41
2.5
 42
2.5
 43
2.5
  0
MTEXT
  5
ED9
330
E57
100
AcDbEntity
  8
0
 62
     4
100
AcDbMText
 10
457.3767039290968
 20
48.63203291429556
 30
0.0
 40
3.0
 41
0.0
 71
     5
 72
     1
  1
1.55
 73
     1
 44
1.0
1001
ACAD
1000
MTEXTBEGIN
1070
    73
1070
     1
1070
    44
1040
1.0
1070
    74
1070
     0
1000
MTEXTEND
  0
POINT
  5
EDA
330
E57
100
AcDbEntity
  8
Defpoints
 62
     0
100
AcDbPoint
 10
470.3459397272398
 20
48.05292498375887
 30
0.0
  0
POINT
  5
EDB
330
E57
100
AcDbEntity
  8
Defpoints
 62
     0
100
AcDbPoint
 10
467.2517039290968
 20
48.05292498375887
 30
0.0
  0
POINT
  5
EDC
330
E57
100
AcDbEntity
  8
Defpoints
 62
     0
100
AcDbPoint
 10
467.2517039290968
 20
46.50703291429556
 30
0.0
  0
ENDBLK
  5
E59
330
E57
100
AcDbEntity
  8
0
100
AcDbBlockEnd
  0
BLOCK
  5
E66
330
E65
100
AcDbEntity
  8
0
100
AcDbBlockBegin
  2
*D15
 70
     1
 10
0.0
 20
0.0
 30
0.0
  3
*D15
  1

  0
LINE
  5
EDD
330
E65
100
AcDbEntity
  8
0
 62
     0
370
    -2
100
AcDbLine
 10
472.0750713353253
 20
42.3468352679124
 30
0.0
 11
472.0750713353253
 21
40.07374760554511
 31
0.0
  0
LINE
  5
EDE
330
E65
100
AcDbEntity
  8
0
 62
     0
370
    -2
100
AcDbLine
 10
468.0707663821334
 20
42.3468352679124
 30
0.0
 11
468.0707663821334
 21
40.07374760554511
 31
0.0
  0
LINE
  5
EDF
330
E65
100
AcDbEntity
  8
0
 62
     0
370
    -2
100
AcDbLine
 10
474.5750713353253
 20
41.32374760554511
 30
0.0
 11
477.0750713353253
 21
41.32374760554511
 31
0.0
  0
LINE
  5
EE0
330
E65
100
AcDbEntity
  8
0
 62
     0
370
    -2
100
AcDbLine
 10
465.5707663821334
 20
41.32374760554511
 30
0.0
 11
457.2374330488001
 21
41.32374760554511
 31
0.0
  0
LINE
  5
EE1
330
E65
100
AcDbEntity
  8
0
 62
     0
370
    -2
100
AcDbLine
 10
472.0750713353253
 20
41.32374760554511
 30
0.0
 11
468.0707663821334
 21
41.32374760554511
 31
0.0
  0
INSERT
  5
EE2
330
E65
100
AcDbEntity
  8
0
 62
     0
370
    -2
100
AcDbBlockReference
  2
_Open30
 10
472.0750713353253
 20
41.32374760554511
 30
0.0
 41
2.5
 42
2.5
 43
2.5
 50
180.0
  0
INSERT
  5
EE3
330
E65
100
AcDbEntity
  8
0
 62
     0
370
    -2
100
AcDbBlockReference
  2
_Open30
 10
468.0707663821334
 20
41.32374760554511
 30
0.0
 41
2.5
 42
2.5
 43
2.5
  0
MTEXT
  5
EE4
330
E65
100
AcDbEntity
  8
0
 62
     4
100
AcDbMText
 10
459.6957663821334
 20
42.94874760554511
 30
0.0
 40
2.0
 41
0.0
 71
     5
 72
     1
  1
0.8
  7
高2
 73
     1
 44
1.0
1001
ACAD
1000
MTEXTBEGIN
1070
    73
1070
     1
1070
    44
1040
1.0
1070
    74
1070
     0
1000
MTEXTEND
  0
POINT
  5
EE5
330
E65
100
AcDbEntity
  8
Defpoints
 62
     0
100
AcDbPoint
 10
472.0750713353253
 20
42.5968352679124
 30
0.0
  0
POINT
  5
EE6
330
E65
100
AcDbEntity
  8
Defpoints
 62
     0
100
AcDbPoint
 10
468.0707663821334
 20
42.5968352679124
 30
0.0
  0
POINT
  5
EE7
330
E65
100
AcDbEntity
  8
Defpoints
 62
     0
100
AcDbPoint
 10
468.0707663821334
 20
41.32374760554511
 30
0.0
  0
ENDBLK
  5
E67
330
E65
100
AcDbEntity
  8
0
100
AcDbBlockEnd
  0
BLOCK
  5
E74
330
E73
100
AcDbEntity
  8
0
100
AcDbBlockBegin
  2
*D16
 70
     1
 10
0.0
 20
0.0
 30
0.0
  3
*D16
  1

  0
LINE
  5
EE8
330
E73
100
AcDbEntity
  8
0
 62
     0
370
    -2
100
AcDbLine
 10
471.9840646333129
 20
37.0726152998808
 30
0.0
 11
471.9840646333129
 21
35.2542017924244
 31
0.0
  0
LINE
  5
EE9
330
E73
100
AcDbEntity
  8
0
 62
     0
370
    -2
100
AcDbLine
 10
467.2517039290968
 20
37.0726152998808
 30
0.0
 11
467.2517039290968
 21
35.2542017924244
 31
0.0
  0
LINE
  5
EEA
330
E73
100
AcDbEntity
  8
0
 62
     0
370
    -2
100
AcDbLine
 10
474.484064633313
 20
36.5042017924244
 30
0.0
 11
476.9840646333129
 21
36.5042017924244
 31
0.0
  0
LINE
  5
EEB
330
E73
100
AcDbEntity
  8
0
 62
     0
370
    -2
100
AcDbLine
 10
464.7517039290969
 20
36.5042017924244
 30
0.0
 11
450.0017039290969
 21
36.5042017924244
 31
0.0
  0
LINE
  5
EEC
330
E73
100
AcDbEntity
  8
0
 62
     0
370
    -2
100
AcDbLine
 10
471.9840646333129
 20
36.5042017924244
 30
0.0
 11
467.2517039290968
 21
36.5042017924244
 31
0.0
  0
INSERT
  5
EED
330
E73
100
AcDbEntity
  8
0
 62
     0
370
    -2
100
AcDbBlockReference
  2
_Open30
 10
471.9840646333129
 20
36.5042017924244
 30
0.0
 41
2.5
 42
2.5
 43
2.5
 50
180.0
  0
INSERT
  5
EEE
330
E73
100
AcDbEntity
  8
0
 62
     0
370
    -2
100
AcDbBlockReference
  2
_Open30
 10
467.2517039290968
 20
36.5042017924244
 30
0.0
 41
2.5
 42
2.5
 43
2.5
  0
MTEXT
  5
EEF
330
E73
100
AcDbEntity
  8
0
 62
     4
100
AcDbMText
 10
456.1267039290968
 20
38.6292017924244
 30
0.0
 40
3.0
 41
0.0
 71
     5
 72
     1
  1
18.93
 73
     1
 44
1.0
1001
ACAD
1000
MTEXTBEGIN
1070
    73
1070
     1
1070
    44
1040
1.0
1070
    74
1070
     0
1000
MTEXTEND
  0
POINT
  5
EF0
330
E73
100
AcDbEntity
  8
Defpoints
 62
     0
100
AcDbPoint
 10
471.9840646333129
 20
37.32261529988079
 30
0.0
  0
POINT
  5
EF1
330
E73
100
AcDbEntity
  8
Defpoints
 62
     0
100
AcDbPoint
 10
467.2517039290968
 20
37.32261529988079
 30
0.0
  0
POINT
  5
EF2
330
E73
100
AcDbEntity
  8
Defpoints
 62
     0
100
AcDbPoint
 10
467.2517039290968
 20
36.5042017924244
 30
0.0
  0
ENDBLK
  5
E75
330
E73
100
AcDbEntity
  8
0
100
AcDbBlockEnd
  0
BLOCK
  5
E82
330
E81
100
AcDbEntity
  8
0
100
AcDbBlockBegin
  2
*D17
 70
     1
 10
0.0
 20
0.0
 30
0.0
  3
*D17
  1

  0
LINE
  5
EF3
330
E81
100
AcDbEntity
  8
0
 62
     0
370
    -2
100
AcDbLine
 10
469.1796377821746
 20
32.01677509329102
 30
0.0
 11
469.1796377821746
 21
29.70685401641549
 31
0.0
  0
LINE
  5
EF4
330
E81
100
AcDbEntity
  8
0
 62
     0
370
    -2
100
AcDbLine
 10
464.5909625800268
 20
32.01677509329102
 30
0.0
 11
464.5909625800268
 21
29.70685401641549
 31
0.0
  0
LINE
  5
EF5
330
E81
100
AcDbEntity
  8
0
 62
     0
370
    -2
100
AcDbLine
 10
471.6796377821746
 20
30.95685401641549
 30
0.0
 11
474.1796377821747
 21
30.95685401641549
 31
0.0
  0
LINE
  5
EF6
330
E81
100
AcDbEntity
  8
0
 62
     0
370
    -2
100
AcDbLine
 10
462.0909625800267
 20
30.95685401641549
 30
0.0
 11
447.3409625800267
 21
30.95685401641549
 31
0.0
  0
LINE
  5
EF7
330
E81
100
AcDbEntity
  8
0
 62
     0
370
    -2
100
AcDbLine
 10
469.1796377821746
 20
30.95685401641549
 30
0.0
 11
464.5909625800268
 21
30.95685401641549
 31
0.0
  0
INSERT
  5
EF8
330
E81
100
AcDbEntity
  8
0
 62
     0
370
    -2
100
AcDbBlockReference
  2
_Open30
 10
469.1796377821746
 20
30.95685401641549
 30
0.0
 41
2.5
 42
2.5
 43
2.5
 50
180.0
  0
INSERT
  5
EF9
330
E81
100
AcDbEntity
  8
0
 62
     0
370
    -2
100
AcDbBlockReference
  2
_Open30
 10
464.5909625800268
 20
30.95685401641549
 30
0.0
 41
2.5
 42
2.5
 43
2.5
  0
MTEXT
  5
EFA
330
E81
100
AcDbEntity
  8
0
 62
     4
100
AcDbMText
 10
453.4659625800268
 20
33.08185401641548
 30
0.0
 40
3.0
 41
0.0
 71
     5
 72
     1
  1
13.77
 73
     1
 44
1.0
1001
ACAD
1000
MTEXTBEGIN
1070
    73
1070
     1
1070
    44
1040
1.0
1070
    74
1070
     0
1000
MTEXTEND
  0
POINT
  5
EFB
330
E81
100
AcDbEntity
  8
Defpoints
 62
     0
100
AcDbPoint
 10
469.1796377821746
 20
32.26677509329102
 30
0.0
  0
POINT
  5
EFC
330
E81
100
AcDbEntity
  8
Defpoints
 62
     0
100
AcDbPoint
 10
464.5909625800268
 20
32.26677509329102
 30
0.0
  0
POINT
  5
EFD
330
E81
100
AcDbEntity
  8
Defpoints
 62
     0
100
AcDbPoint
 10
464.5909625800268
 20
30.95685401641549
 30
0.0
  0
ENDBLK
  5
E83
330
E81
100
AcDbEntity
  8
0
100
AcDbBlockEnd
  0
BLOCK
  5
E90
330
E8F
100
AcDbEntity
  8
0
100
AcDbBlockBegin
  2
*D18
 70
     1
 10
0.0
 20
0.0
 30
0.0
  3
*D18
  1

  0
LINE
  5
EFE
330
E8F
100
AcDbEntity
  8
0
 62
     0
370
    -2
100
AcDbLine
 10
462.0833549490242
 20
62.94626641156536
 30
0.0
 11
462.0833549490242
 21
70.34279988950311
 31
0.0
  0
LINE
  5
EFF
330
E8F
100
AcDbEntity
  8
0
 62
     0
370
    -2
100
AcDbLine
 10
452.1448805795342
 20
62.94626641156536
 30
0.0
 11
452.1448805795342
 21
70.34279988950311
 31
0.0
  0
LINE
  5
F00
330
E8F
100
AcDbEntity
  8
0
 62
     0
370
    -2
100
AcDbLine
 10
459.5833549490243
 20
69.09279988950311
 30
0.0
 11
454.6448805795344
 21
69.09279988950311
 31
0.0
  0
INSERT
  5
F01
330
E8F
100
AcDbEntity
  8
0
 62
     0
370
    -2
100
AcDbBlockReference
  2
_Open30
 10
462.0833549490242
 20
69.09279988950311
 30
0.0
 41
2.5
 42
2.5
 43
2.5
  0
INSERT
  5
F02
330
E8F
100
AcDbEntity
  8
0
 62
     0
370
    -2
100
AcDbBlockReference
  2
_Open30
 10
452.1448805795342
 20
69.09279988950311
 30
0.0
 41
2.5
 42
2.5
 43
2.5
 50
180.0
  0
MTEXT
  5
F03
330
E8F
100
AcDbEntity
  8
0
 62
     4
100
AcDbMText
 10
457.1141177642793
 20
72.1677998895031
 30
0.0
 40
3.0
 41
0.0
 71
     5
 72
     1
  1
9.94\H0.7X;\S+0^ -0.02;
 73
     1
 44
1.0
1001
ACAD
1000
MTEXTBEGIN
1070
    73
1070
     1
1070
    44
1040
1.0
1070
    74
1070
     0
1000
MTEXTEND
  0
POINT
  5
F04
330
E8F
100
AcDbEntity
  8
Defpoints
 62
     0
100
AcDbPoint
 10
462.0833549490242
 20
62.69626641156538
 30
0.0
  0
POINT
  5
F05
330
E8F
100
AcDbEntity
  8
Defpoints
 62
     0
100
AcDbPoint
 10
452.1448805795342
 20
62.69626641156538
 30
0.0
  0
POINT
  5
F06
330
E8F
100
AcDbEntity
  8
Defpoints
 62
     0
100
AcDbPoint
 10
452.1448805795342
 20
69.09279988950311
 30
0.0
  0
ENDBLK
  5
E91
330
E8F
100
AcDbEntity
  8
0
100
AcDbBlockEnd
  0
ENDSEC
  0
SECTION
  2
ENTITIES
  0
TEXT
  5
FD
330
6B
100
AcDbEntity
  8
0
 62
     3
100
AcDbText
 10
98.04884600000001
 20
-106.149664
 30
0.0
 40
4.5
  1
防爆コンセントドラム
 41
0.7
  7
高4.5
100
AcDbText
  0
LINE
  5
113
330
6B
100
AcDbEntity
  8
0
 62
     3
100
AcDbLine
 10
86.83131000000001
 20
-54.41168499999999
 30
0.0
 11
86.83131000000001
 21
-78.41168499999998
 31
0.0
  0
LINE
  5
114
330
6B
100
AcDbEntity
  8
0
100
AcDbLine
 10
86.83131000000001
 20
-67.211685
 30
0.0
 11
157.2617664876903
 21
-67.211685
 31
0.0
  0
LINE
  5
115
330
6B
100
AcDbEntity
  8
0
100
AcDbLine
 10
86.83131000000001
 20
-72.81168499999998
 30
0.0
 11
157.2617664876903
 21
-72.81168499999998
 31
0.0
  0
LINE
  5
116
330
6B
100
AcDbEntity
  8
0
100
AcDbLine
 10
117.5373394876903
 20
-67.211685
 30
0.0
 11
117.5373394876903
 21
-78.41168499999998
 31
0.0
  0
LINE
  5
117
330
6B
100
AcDbEntity
  8
0
 62
     3
100
AcDbLine
 10
86.83131000000001
 20
-78.41168499999998
 30
0.0
 11
157.2617664876903
 21
-78.41168499999998
 31
0.0
  0
LINE
  5
118
330
6B
100
AcDbEntity
  8
0
 62
     3
100
AcDbLine
 10
157.2617664876903
 20
-54.41168499999999
 30
0.0
 11
157.2617664876903
 21
-78.41168499999998
 31
0.0
  0
LINE
  5
119
330
6B
100
AcDbEntity
  8
0
100
AcDbLine
 10
86.83131000000001
 20
-60.811685
 30
0.0
 11
157.2617664876903
 21
-60.811685
 31
0.0
  0
LINE
  5
11A
330
6B
100
AcDbEntity
  8
0
 62
     3
100
AcDbLine
 10
86.83131000000001
 20
-54.41168499999999
 30
0.0
 11
157.2617664876903
 21
-54.41168499999999
 31
0.0
  0
LINE
  5
11B
330
6B
100
AcDbEntity
  8
0
 62
     3
100
AcDbLine
 10
44.18678599999998
 20
22.297726
 30
0.0
 11
44.93678599999999
 21
22.297726
 31
0.0
  0
LINE
  5
11C
330
6B
100
AcDbEntity
  8
0
 62
     3
100
AcDbLine
 10
117.274969
 20
18.672279
 30
0.0
 11
117.274969
 21
68.091995
 31
0.0
  0
LINE
  5
11D
330
6B
100
AcDbEntity
  8
0
 62
     3
100
AcDbLine
 10
117.274969
 20
17.638067
 30
0.0
 11
117.274969
 21
18.672279
 31
0.0
  0
LINE
  5
11E
330
6B
100
AcDbEntity
  8
0
 62
     3
100
AcDbLine
 10
117.274969
 20
17.638067
 30
0.0
 11
117.274969
 21
9.753432999999999
 31
0.0
  0
LINE
  5
134
330
6B
100
AcDbEntity
  8
0
 62
     3
100
AcDbLine
 10
48.411786
 20
40.653964
 30
0.0
 11
48.193245
 21
40.653964
 31
0.0
  0
LINE
  5
135
330
6B
100
AcDbEntity
  8
0
 62
     3
100
AcDbLine
 10
48.411786
 20
37.191464
 30
0.0
 11
47.960862
 21
37.191464
 31
0.0
  0
ARC
  5
136
330
6B
100
AcDbEntity
  8
0
 62
     3
100
AcDbCircle
 10
122.524969
 20
41.547714
 30
0.0
 40
0.5
100
AcDbArc
 50
0.0
 51
90.0
  0
ARC
  5
137
330
6B
100
AcDbEntity
  8
0
 62
     3
100
AcDbCircle
 10
122.524969
 20
36.297714
 30
0.0
 40
0.5
100
AcDbArc
 50
270.0
 51
0.0
  0
TEXT
  5
138
330
6B
100
AcDbEntity
  8
0
 62
     3
100
AcDbText
 10
-154.5613168003094
 20
-7.603359025092396
 30
0.0
 40
4.5
  1
コンセント部詳細
  7
高4.5
100
AcDbText
  0
LINE
  5
139
330
6B
100
AcDbEntity
  8
0
 62
     3
100
AcDbLine
 10
113.524969
 20
3.710214
 30
0.0
 11
59.036786
 21
3.710214
 31
0.0
  0
ARC
  5
13A
330
6B
100
AcDbEntity
  8
0
 62
     3
100
AcDbCircle
 10
-133.635402
 20
38.922539
 30
0.0
 40
8.125
100
AcDbArc
 50
61.39595999999999
 51
298.60404
  0
LINE
  5
13B
330
6B
100
AcDbEntity
  8
0
 62
     3
100
AcDbLine
 10
93.172917
 20
19.298001
 30
0.0
 11
117.274969
 21
19.298001
 31
0.0
  0
ARC
  5
13C
330
6B
100
AcDbEntity
  8
0
 62
     3
100
AcDbCircle
 10
-40.12420699999998
 20
38.994782
 30
0.0
 40
30.072243
100
AcDbArc
 50
237.094156
 51
302.905844
  0
ARC
  5
13D
330
6B
100
AcDbEntity
  8
0
 62
     3
100
AcDbCircle
 10
-133.635402
 20
38.994782
 30
0.0
 40
30.072243
100
AcDbArc
 50
237.094156
 51
302.905844
  0
LINE
  5
13E
330
6B
100
AcDbEntity
  8
0
 62
     3
100
AcDbLine
 10
-124.763931
 20
62.472545
 30
0.0
 11
-124.540277
 21
62.183989
 31
0.0
  0
LINE
  5
13F
330
6B
100
AcDbEntity
  8
0
100
AcDbLine
 10
45.686786
 20
22.547726
 30
0.0
 11
44.93678599999999
 21
22.547726
 31
0.0
  0
LINE
  5
140
330
6B
100
AcDbEntity
  8
0
100
AcDbLine
 10
45.686786
 20
24.047726
 30
0.0
 11
45.686786
 21
22.547726
 31
0.0
  0
LINE
  5
141
330
6B
100
AcDbEntity
  8
0
100
AcDbLine
 10
45.686786
 20
24.047726
 30
0.0
 11
44.93678599999999
 21
24.047726
 31
0.0
  0
CIRCLE
  5
142
330
6B
100
AcDbEntity
  8
0
100
AcDbCircle
 10
81.372069
 20
18.642878
 30
0.0
 40
0.65625
  0
ARC
  5
143
330
6B
100
AcDbEntity
  8
0
100
AcDbCircle
 10
82.275115
 20
19.048001
 30
0.0
 40
0.25
100
AcDbArc
 50
90.0
 51
180.0
  0
LINE
  5
144
330
6B
100
AcDbEntity
  8
0
100
AcDbLine
 10
82.02511499999998
 20
19.048001
 30
0.0
 11
82.02511499999998
 21
18.548001
 31
0.0
  0
LINE
  5
145
330
6B
100
AcDbEntity
  8
0
100
AcDbLine
 10
80.71902299999996
 20
19.048001
 30
0.0
 11
80.71902299999996
 21
18.548001
 31
0.0
  0
ARC
  5
146
330
6B
100
AcDbEntity
  8
0
100
AcDbCircle
 10
80.46902299999997
 20
19.048001
 30
0.0
 40
0.25
100
AcDbArc
 50
0.0
 51
90.0
  0
ARC
  5
147
330
6B
100
AcDbEntity
  8
0
100
AcDbCircle
 10
81.372069
 20
18.642878
 30
0.0
 40
0.90625
100
AcDbArc
 50
183.8685439999999
 51
356.131456
  0
ARC
  5
148
330
6B
100
AcDbEntity
  8
0
100
AcDbCircle
 10
82.77511500000001
 20
18.548001
 30
0.0
 40
0.5
100
AcDbArc
 50
90.0
 51
176.131456
  0
LINE
  5
149
330
6B
100
AcDbEntity
  8
0
100
AcDbLine
 10
82.77511500000001
 20
19.048001
 30
0.0
 11
83.872069
 21
19.048001
 31
0.0
  0
LINE
  5
14A
330
6B
100
AcDbEntity
  8
0
100
AcDbLine
 10
83.872069
 20
19.048001
 30
0.0
 11
83.872069
 21
19.298001
 31
0.0
  0
ARC
  5
14B
330
6B
100
AcDbEntity
  8
0
100
AcDbCircle
 10
79.96902299999998
 20
18.548001
 30
0.0
 40
0.5
100
AcDbArc
 50
3.868544
 51
90.0
  0
LINE
  5
14C
330
6B
100
AcDbEntity
  8
0
100
AcDbLine
 10
79.96902299999998
 20
19.048001
 30
0.0
 11
78.87206899999998
 21
19.048001
 31
0.0
  0
LINE
  5
14D
330
6B
100
AcDbEntity
  8
0
100
AcDbLine
 10
78.87206899999998
 20
19.048001
 30
0.0
 11
78.87206899999998
 21
19.298001
 31
0.0
  0
LINE
  5
14E
330
6B
100
AcDbEntity
  8
0
 62
     3
100
AcDbLine
 10
80.46902299999997
 20
19.298001
 30
0.0
 11
93.172917
 21
19.298001
 31
0.0
  0
LINE
  5
14F
330
6B
100
AcDbEntity
  8
0
 62
     3
100
AcDbLine
 10
80.46902299999997
 20
19.298001
 30
0.0
 11
76.649969
 21
19.298001
 31
0.0
  0
ARC
  5
150
330
6B
100
AcDbEntity
  8
0
100
AcDbCircle
 10
-40.12420699999998
 20
45.922539
 30
0.0
 40
0.75
100
AcDbArc
 50
335.375682
 51
204.624318
  0
ARC
  5
151
330
6B
100
AcDbEntity
  8
0
100
AcDbCircle
 10
-40.12420699999998
 20
38.922539
 30
0.0
 40
1.875
100
AcDbArc
 50
342.0
 51
162.0
  0
LINE
  5
152
330
6B
100
AcDbEntity
  8
0
100
AcDbLine
 10
-53.736012
 20
53.948558
 30
0.0
 11
-55.150226
 21
52.534345
 31
0.0
  0
ARC
  5
153
330
6B
100
AcDbEntity
  8
0
100
AcDbCircle
 10
-53.559236
 20
52.357568
 30
0.0
 40
0.5
100
AcDbArc
 50
51.93480800000001
 51
308.065192
  0
CIRCLE
  5
154
330
6B
100
AcDbEntity
  8
0
100
AcDbCircle
 10
-57.09476999999999
 20
55.89310199999999
 30
0.0
 40
0.5
  0
CIRCLE
  5
155
330
6B
100
AcDbEntity
  8
0
100
AcDbCircle
 10
-44.951048
 20
24.067048
 30
0.0
 40
0.995175
  0
CIRCLE
  5
156
330
6B
100
AcDbEntity
  8
0
100
AcDbCircle
 10
-139.69758
 20
35.422539
 30
0.0
 40
0.75
  0
ARC
  5
157
330
6B
100
AcDbEntity
  8
0
100
AcDbCircle
 10
-133.635402
 20
38.922539
 30
0.0
 40
1.875
100
AcDbArc
 50
0.0
 51
180.0
  0
ARC
  5
158
330
6B
100
AcDbEntity
  8
0
100
AcDbCircle
 10
-133.635402
 20
38.922539
 30
0.0
 40
1.875
100
AcDbArc
 50
180.0
 51
0.0
  0
CIRCLE
  5
159
330
6B
100
AcDbEntity
  8
0
100
AcDbCircle
 10
-133.635402
 20
45.922539
 30
0.0
 40
0.75
  0
CIRCLE
  5
15A
330
6B
100
AcDbEntity
  8
0
100
AcDbCircle
 10
-147.070431
 20
53.35756800000001
 30
0.0
 40
0.5
  0
LINE
  5
15B
330
6B
100
AcDbEntity
  8
0
100
AcDbLine
 10
-147.247207
 20
54.94855799999999
 30
0.0
 11
-148.661421
 21
53.53434499999998
 31
0.0
  0
LINE
  5
15C
330
6B
100
AcDbEntity
  8
0
100
AcDbLine
 10
-149.014974
 20
56.716325
 30
0.0
 11
-150.429188
 21
55.30211099999998
 31
0.0
  0
CIRCLE
  5
15D
330
6B
100
AcDbEntity
  8
0
100
AcDbCircle
 10
-150.605965
 20
56.893102
 30
0.0
 40
0.5
  0
LINE
  5
167
330
6B
100
AcDbEntity
  8
0
 62
     3
100
AcDbLine
 10
-119.385402
 20
48.422539
 30
0.0
 11
-120.635402
 21
48.422539
 31
0.0
  0
ARC
  5
168
330
6B
100
AcDbEntity
  8
0
100
AcDbCircle
 10
-133.635402
 20
38.994782
 30
0.0
 40
29.072243
100
AcDbArc
 50
237.403627
 51
302.596373
  0
LINE
  5
169
330
6B
100
AcDbEntity
  8
0
100
AcDbLine
 10
-124.385402
 20
61.727561
 30
0.0
 11
-124.385402
 21
59.172539
 31
0.0
  0
ARC
  5
16A
330
6B
100
AcDbEntity
  8
0
100
AcDbCircle
 10
-125.135402
 20
61.727561
 30
0.0
 40
0.75
100
AcDbArc
 50
0.0
 51
37.486195
  0
ARC
  5
19A
330
6B
100
AcDbEntity
  8
0
100
AcDbCircle
 10
-133.635402
 20
39.922539
 30
0.0
 40
20.75
100
AcDbArc
 50
90.0
 51
119.925897
  0
ARC
  5
19B
330
6B
100
AcDbEntity
  8
0
100
AcDbCircle
 10
-133.635402
 20
39.922539
 30
0.0
 40
22.25
100
AcDbArc
 50
90.0
 51
117.726221
  0
ARC
  5
19C
330
6B
100
AcDbEntity
  8
0
100
AcDbCircle
 10
-133.635402
 20
39.922539
 30
0.0
 40
20.75
100
AcDbArc
 50
129.243277
 51
180.0
  0
ARC
  5
19D
330
6B
100
AcDbEntity
  8
0
100
AcDbCircle
 10
-133.635402
 20
39.922539
 30
0.0
 40
22.25
100
AcDbArc
 50
126.154616
 51
180.0
  0
ARC
  5
19E
330
6B
100
AcDbEntity
  8
0
100
AcDbCircle
 10
-155.135402
 20
39.922539
 30
0.0
 40
0.75
100
AcDbArc
 50
180.0
 51
0.0
  0
ARC
  5
19F
330
6B
100
AcDbEntity
  8
0
100
AcDbCircle
 10
-40.12420699999998
 20
38.994782
 30
0.0
 40
29.072243
100
AcDbArc
 50
237.403627
 51
302.596373
  0
LINE
  5
1A0
330
6B
100
AcDbEntity
  8
0
100
AcDbLine
 10
-30.874207
 20
60.727561
 30
0.0
 11
-30.874207
 21
59.172539
 31
0.0
  0
LINE
  5
1C5
330
6B
100
AcDbEntity
  8
0
100
AcDbLine
 10
-31.029082
 20
61.183989
 30
0.0
 11
-31.232718
 21
61.449505
 31
0.0
  0
ARC
  5
1C6
330
6B
100
AcDbEntity
  8
0
100
AcDbCircle
 10
-40.12420699999998
 20
38.922539
 30
0.0
 40
22.25
100
AcDbArc
 50
90.0
 51
117.726221
  0
ARC
  5
1C7
330
6B
100
AcDbEntity
  8
0
100
AcDbCircle
 10
-40.12420699999998
 20
38.922539
 30
0.0
 40
20.75
100
AcDbArc
 50
90.0
 51
119.925897
  0
ARC
  5
1C8
330
6B
100
AcDbEntity
  8
0
100
AcDbCircle
 10
-40.12420699999998
 20
38.922539
 30
0.0
 40
20.75
100
AcDbArc
 50
129.243277
 51
180.0
  0
ARC
  5
1C9
330
6B
100
AcDbEntity
  8
0
100
AcDbCircle
 10
-40.12420699999998
 20
38.922539
 30
0.0
 40
22.25
100
AcDbArc
 50
126.154616
 51
180.0
  0
ARC
  5
1CA
330
6B
100
AcDbEntity
  8
0
100
AcDbCircle
 10
-61.624207
 20
38.922539
 30
0.0
 40
0.75
100
AcDbArc
 50
180.0
 51
0.0
  0
LINE
  5
1CB
330
6B
100
AcDbEntity
  8
0
100
AcDbLine
 10
166.399061
 20
30.157172
 30
0.0
 11
166.399061
 21
25.91258
 31
0.0
  0
LINE
  5
1CC
330
6B
100
AcDbEntity
  8
0
100
AcDbLine
 10
165.899061
 20
30.157172
 30
0.0
 11
165.899061
 21
25.91258
 31
0.0
  0
ARC
  5
1CD
330
6B
100
AcDbEntity
  8
0
100
AcDbCircle
 10
166.149061
 20
31.688422
 30
0.0
 40
5.78125
100
AcDbArc
 50
251.075356
 51
288.924644
  0
ARC
  5
1CE
330
6B
100
AcDbEntity
  8
0
100
AcDbCircle
 10
166.149061
 20
21.375922
 30
0.0
 40
5.78125
100
AcDbArc
 50
92.478428
 51
108.924644
  0
ARC
  5
1CF
330
6B
100
AcDbEntity
  8
0
100
AcDbCircle
 10
166.149061
 20
21.375922
 30
0.0
 40
5.78125
100
AcDbArc
 50
71.075356
 51
87.52157199999997
  0
ARC
  5
1D0
330
6B
100
AcDbEntity
  8
0
100
AcDbCircle
 10
168.649061
 20
26.375922
 30
0.0
 40
0.78125
100
AcDbArc
 50
90.0
 51
143.130102
  0
ARC
  5
1D1
330
6B
100
AcDbEntity
  8
0
100
AcDbCircle
 10
168.649061
 20
26.688422
 30
0.0
 40
0.78125
100
AcDbArc
 50
216.869898
 51
270.0
  0
ARC
  5
1D2
330
6B
100
AcDbEntity
  8
0
100
AcDbCircle
 10
163.649061
 20
26.688422
 30
0.0
 40
0.78125
100
AcDbArc
 50
270.0
 51
323.130102
  0
ARC
  5
1D3
330
6B
100
AcDbEntity
  8
0
100
AcDbCircle
 10
163.649061
 20
26.375922
 30
0.0
 40
0.78125
100
AcDbArc
 50
36.869898
 51
90.0
  0
ARC
  5
1D4
330
6B
100
AcDbEntity
  8
0
100
AcDbCircle
 10
168.649061
 20
26.688422
 30
0.0
 40
0.78125
100
AcDbArc
 50
270.0
 51
323.130102
  0
LINE
  5
1D5
330
6B
100
AcDbEntity
  8
0
100
AcDbLine
 10
169.274061
 20
26.844672
 30
0.0
 11
169.274061
 21
26.219672
 31
0.0
  0
ARC
  5
1D6
330
6B
100
AcDbEntity
  8
0
100
AcDbCircle
 10
168.649061
 20
26.375922
 30
0.0
 40
0.78125
100
AcDbArc
 50
36.869898
 51
90.0
  0
LINE
  5
1D7
330
6B
100
AcDbEntity
  8
0
100
AcDbLine
 10
168.649061
 20
27.157172
 30
0.0
 11
166.399061
 21
27.157172
 31
0.0
  0
LINE
  5
1D8
330
6B
100
AcDbEntity
  8
0
100
AcDbLine
 10
165.899061
 20
27.157172
 30
0.0
 11
163.649061
 21
27.157172
 31
0.0
  0
ARC
  5
1D9
330
6B
100
AcDbEntity
  8
0
100
AcDbCircle
 10
163.649061
 20
26.375922
 30
0.0
 40
0.78125
100
AcDbArc
 50
90.0
 51
143.130102
  0
LINE
  5
1DA
330
6B
100
AcDbEntity
  8
0
100
AcDbLine
 10
163.024061
 20
26.844672
 30
0.0
 11
163.024061
 21
26.219672
 31
0.0
  0
ARC
  5
1DB
330
6B
100
AcDbEntity
  8
0
100
AcDbCircle
 10
163.649061
 20
26.688422
 30
0.0
 40
0.78125
100
AcDbArc
 50
216.869898
 51
270.0
  0
LINE
  5
1DC
330
6B
100
AcDbEntity
  8
0
100
AcDbLine
 10
163.649061
 20
25.907172
 30
0.0
 11
168.649061
 21
25.907172
 31
0.0
  0
ARC
  5
1DD
330
6B
100
AcDbEntity
  8
0
100
AcDbCircle
 10
163.524061
 20
28.907172
 30
0.0
 40
0.5
100
AcDbArc
 50
180.0
 51
270.0
  0
LINE
  5
1DE
330
6B
100
AcDbEntity
  8
0
100
AcDbLine
 10
163.524061
 20
28.407172
 30
0.0
 11
165.899061
 21
28.407172
 31
0.0
  0
LINE
  5
1DF
330
6B
100
AcDbEntity
  8
0
100
AcDbLine
 10
168.274061
 20
27.907172
 30
0.0
 11
168.274061
 21
27.157172
 31
0.0
  0
LINE
  5
1E0
330
6B
100
AcDbEntity
  8
0
100
AcDbLine
 10
164.024061
 20
27.907172
 30
0.0
 11
164.024061
 21
27.157172
 31
0.0
  0
LINE
  5
1E1
330
6B
100
AcDbEntity
  8
0
100
AcDbLine
 10
165.899061
 20
27.907172
 30
0.0
 11
163.024061
 21
27.907172
 31
0.0
  0
LINE
  5
1E2
330
6B
100
AcDbEntity
  8
0
100
AcDbLine
 10
163.024061
 20
27.907172
 30
0.0
 11
163.024061
 21
28.157172
 31
0.0
  0
LINE
  5
1E3
330
6B
100
AcDbEntity
  8
0
100
AcDbLine
 10
165.899061
 20
28.157172
 30
0.0
 11
163.024061
 21
28.157172
 31
0.0
  0
LINE
  5
1E4
330
6B
100
AcDbEntity
  8
0
100
AcDbLine
 10
169.274061
 20
28.157172
 30
0.0
 11
166.399061
 21
28.157172
 31
0.0
  0
LINE
  5
1E5
330
6B
100
AcDbEntity
  8
0
100
AcDbLine
 10
169.274061
 20
27.907172
 30
0.0
 11
169.274061
 21
28.157172
 31
0.0
  0
LINE
  5
1E6
330
6B
100
AcDbEntity
  8
0
100
AcDbLine
 10
169.274061
 20
27.907172
 30
0.0
 11
166.399061
 21
27.907172
 31
0.0
  0
LINE
  5
1E7
330
6B
100
AcDbEntity
  8
0
100
AcDbLine
 10
168.774061
 20
28.407172
 30
0.0
 11
166.399061
 21
28.407172
 31
0.0
  0
ARC
  5
1E8
330
6B
100
AcDbEntity
  8
0
100
AcDbCircle
 10
168.774061
 20
28.907172
 30
0.0
 40
0.5
100
AcDbArc
 50
270.0
 51
0.0
  0
LINE
  5
1E9
330
6B
100
AcDbEntity
  8
0
100
AcDbLine
 10
163.524061
 20
30.157172
 30
0.0
 11
168.774061
 21
30.157172
 31
0.0
  0
ARC
  5
1EA
330
6B
100
AcDbEntity
  8
0
100
AcDbCircle
 10
168.774061
 20
29.657172
 30
0.0
 40
0.5
100
AcDbArc
 50
0.0
 51
90.0
  0
ARC
  5
1EB
330
6B
100
AcDbEntity
  8
0
100
AcDbCircle
 10
163.524061
 20
29.657172
 30
0.0
 40
0.5
100
AcDbArc
 50
90.0
 51
180.0
  0
LINE
  5
1EC
330
6B
100
AcDbEntity
  8
0
100
AcDbLine
 10
163.024061
 20
29.657172
 30
0.0
 11
163.024061
 21
28.907172
 31
0.0
  0
CIRCLE
  5
1ED
330
6B
100
AcDbEntity
  8
0
100
AcDbCircle
 10
164.024061
 20
29.282172
 30
0.0
 40
0.625
  0
CIRCLE
  5
1EE
330
6B
100
AcDbEntity
  8
0
100
AcDbCircle
 10
168.274061
 20
29.282172
 30
0.0
 40
0.625
  0
LINE
  5
1EF
330
6B
100
AcDbEntity
  8
0
100
AcDbLine
 10
169.274061
 20
28.907172
 30
0.0
 11
169.274061
 21
29.657172
 31
0.0
  0
LINE
  5
1F0
330
6B
100
AcDbEntity
  8
0
100
AcDbLine
 10
167.554529
 20
30.45629
 30
0.0
 11
167.554529
 21
30.14379
 31
0.0
  0
ARC
  5
1F1
330
6B
100
AcDbEntity
  8
0
100
AcDbCircle
 10
167.429529
 20
30.45629
 30
0.0
 40
0.125
100
AcDbArc
 50
0.0
 51
90.0
  0
LINE
  5
1F2
330
6B
100
AcDbEntity
  8
0
100
AcDbLine
 10
167.429529
 20
30.58129
 30
0.0
 11
164.929529
 21
30.58129
 31
0.0
  0
ARC
  5
1F3
330
6B
100
AcDbEntity
  8
0
100
AcDbCircle
 10
164.929529
 20
30.45629
 30
0.0
 40
0.125
100
AcDbArc
 50
90.0
 51
180.0
  0
LINE
  5
1F4
330
6B
100
AcDbEntity
  8
0
100
AcDbLine
 10
164.804529
 20
30.45629
 30
0.0
 11
164.804529
 21
30.14379
 31
0.0
  0
LINE
  5
1F5
330
6B
100
AcDbEntity
  8
0
100
AcDbLine
 10
161.774061
 20
16.282172
 30
0.0
 11
161.774061
 21
13.779582
 31
0.0
  0
LINE
  5
1F6
330
6B
100
AcDbEntity
  8
0
100
AcDbLine
 10
170.524061
 20
16.282172
 30
0.0
 11
170.524061
 21
13.550142
 31
0.0
  0
ARC
  5
1F7
330
6B
100
AcDbEntity
  8
0
100
AcDbCircle
 10
170.149061
 20
17.032172
 30
0.0
 40
0.625
100
AcDbArc
 50
180.0
 51
270.0
  0
LINE
  5
1F8
330
6B
100
AcDbEntity
  8
0
100
AcDbLine
 10
170.399061
 20
16.407172
 30
0.0
 11
161.899061
 21
16.407172
 31
0.0
  0
LINE
  5
1F9
330
6B
100
AcDbEntity
  8
0
 62
     3
100
AcDbLine
 10
164.024061
 20
25.907172
 30
0.0
 11
162.7497469999999
 21
16.859541
 31
0.0
  0
LINE
  5
1FA
330
6B
100
AcDbEntity
  8
0
 62
     3
100
AcDbLine
 10
168.274061
 20
25.907172
 30
0.0
 11
169.548376
 21
16.859541
 31
0.0
  0
LINE
  5
1FB
330
6B
100
AcDbEntity
  8
0
 62
     3
100
AcDbLine
 10
166.929529
 20
30.58129
 30
0.0
 11
166.929529
 21
39.359809
 31
0.0
  0
LINE
  5
1FC
330
6B
100
AcDbEntity
  8
0
 62
     3
100
AcDbLine
 10
165.429529
 20
30.58129
 30
0.0
 11
165.429529
 21
39.359809
 31
0.0
  0
CIRCLE
  5
203
330
6B
100
AcDbEntity
  8
0
100
AcDbCircle
 10
86.595743
 20
91.683032
 30
0.0
 40
5.0
  0
TEXT
  5
204
330
6B
100
AcDbEntity
  8
0
 62
     4
100
AcDbText
 10
84.35412418715214
 20
88.59849428511086
 30
0.0
 40
6.299999999999998
  1
4
  7
高6.3
100
AcDbText
  0
CIRCLE
  5
20B
330
6B
100
AcDbEntity
  8
0
100
AcDbCircle
 10
98.19445899999999
 20
90.95700499999999
 30
0.0
 40
5.0
  0
TEXT
  5
20C
330
6B
100
AcDbEntity
  8
0
 62
     4
100
AcDbText
 10
95.92125878092451
 20
87.70920464904905
 30
0.0
 40
6.299999999999998
  1
3
  7
高6.3
100
AcDbText
  0
CIRCLE
  5
213
330
6B
100
AcDbEntity
  8
0
100
AcDbCircle
 10
111.005983
 20
91.683032
 30
0.0
 40
5.0
  0
TEXT
  5
214
330
6B
100
AcDbEntity
  8
0
 62
     4
100
AcDbText
 10
108.6373444390206
 20
88.51909496799965
 30
0.0
 40
6.299999999999998
  1
2
  7
高6.3
100
AcDbText
  0
CIRCLE
  5
21B
330
6B
100
AcDbEntity
  8
0
100
AcDbCircle
 10
131.610694
 20
91.683032
 30
0.0
 40
5.0
  0
TEXT
  5
21C
330
6B
100
AcDbEntity
  8
0
 62
     4
100
AcDbText
 10
130.576956313485
 20
88.76420926536829
 30
0.0
 40
6.299999999999998
  1
1
  7
高6.3
100
AcDbText
  0
LINE
  5
21D
330
6B
100
AcDbEntity
  8
0
  6
CENTER
100
AcDbLine
 10
43.841649
 20
38.923001
 30
0.0
 11
125.05241
 21
38.923001
 31
0.0
  0
TEXT
  5
21E
330
6B
100
AcDbEntity
  8
0
 62
     3
100
AcDbText
 10
89.13315808049695
 20
-60.242214
 30
0.0
 40
4.5
  1
防爆型電工ドラム（屋内型）
  7
高4.5
100
AcDbText
  0
TEXT
  5
21F
330
6B
100
AcDbEntity
  8
0
 62
     3
100
AcDbText
 10
102.169139
 20
-66.541836
 30
0.0
 40
4.5
  1
単相100V仕様
  7
高4.5
100
AcDbText
  0
TEXT
  5
220
330
6B
100
AcDbEntity
  8
0
 62
     3
100
AcDbText
 10
88.070192
 20
-72.18210299999999
 30
0.0
 40
4.5
  1
定格　電圧
  7
高4.5
100
AcDbText
  0
TEXT
  5
221
330
6B
100
AcDbEntity
  8
0
 62
     3
100
AcDbText
 10
88.070192
 20
-77.622102
 30
0.0
 40
4.5
  1
定格　電流
  7
高4.5
100
AcDbText
  0
TEXT
  5
222
330
6B
100
AcDbEntity
  8
0
 62
     3
100
AcDbText
 10
100.929977
 20
-120.113329
 30
0.0
 40
3.2
  1
別　掲
  7
高3.2
100
AcDbText
  0
TEXT
  5
223
330
6B
100
AcDbEntity
  8
0
 62
     3
100
AcDbText
 10
159.228287
 20
-126.859207
 30
0.0
 40
3.2
  1
2001.06.26
  7
高3.2
100
AcDbText
  0
TEXT
  5
224
330
6B
100
AcDbEntity
  8
0
 62
     4
100
AcDbText
 10
157.5147964403472
 20
7.494798654059877
 30
0.0
 40
3.2
  1
防爆プラグ
  7
高3.2
100
AcDbText
  0
LINE
  5
225
330
6B
100
AcDbEntity
  8
0
 62
     3
100
AcDbLine
 10
-38.249207
 20
34.235039
 30
0.0
 11
-39.675776
 21
34.235039
 31
0.0
  0
CIRCLE
  5
226
330
6B
100
AcDbEntity
  8
0
 62
     3
100
AcDbCircle
 10
-44.951048
 20
24.067048
 30
0.0
 40
2.586622999999999
  0
TEXT
  5
227
330
6B
100
AcDbEntity
  8
0
 62
     3
100
AcDbText
 10
-184.1157787081876
 20
-138.0
 30
0.0
 40
3.2
  1
部　品　名
 41
0.8
  7
高3.2
100
AcDbText
  0
TEXT
  5
228
330
6B
100
AcDbEntity
  8
0
 62
     3
100
AcDbText
 10
-101.8945367199547
 20
-138.0
 30
0.0
 40
3.2
  1
個数　
 41
0.8
  7
高3.2
100
AcDbText
  0
TEXT
  5
229
330
6B
100
AcDbEntity
  8
0
 62
     3
100
AcDbText
 10
-164.0958305087
 20
-138.0
 30
0.0
 40
3.2
  1
材　質　　　　
 41
0.8
  7
高3.2
100
AcDbText
  0
TEXT
  5
22A
330
6B
100
AcDbEntity
  8
0
 62
     3
100
AcDbText
 10
-142.1900566770734
 20
-138.0
 30
0.0
 40
3.2
  1
備　　　　考　
 41
0.8
  7
高3.2
100
AcDbText
  0
TEXT
  5
22B
330
6B
100
AcDbEntity
  8
0
 62
     3
100
AcDbText
 10
-193.5
 20
-138.0
 30
0.0
 40
3.2
  1
　番号　
 41
0.8
  7
高3.2
100
AcDbText
  0
TEXT
  5
22C
330
6B
100
AcDbEntity
  8
0
 62
     3
100
AcDbText
 10
130.55792
 20
-127.52313
 30
0.0
 40
3.2
  1
1/8
  7
高3.2
100
AcDbText
  0
LINE
  5
22D
330
6B
100
AcDbEntity
  8
0
 62
     3
100
AcDbLine
 10
117.149969
 20
40.797726
 30
0.0
 11
117.274969
 21
40.797726
 31
0.0
  0
LINE
  5
22E
330
6B
100
AcDbEntity
  8
0
 62
     3
100
AcDbLine
 10
117.149969
 20
37.047726
 30
0.0
 11
117.274969
 21
37.047726
 31
0.0
  0
LINE
  5
22F
330
6B
100
AcDbEntity
  8
0
 62
     3
100
AcDbLine
 10
123.024969
 20
36.297714
 30
0.0
 11
123.024969
 21
41.547714
 31
0.0
  0
LINE
  5
230
330
6B
100
AcDbEntity
  8
0
100
AcDbLine
 10
35.036786
 20
24.047726
 30
0.0
 11
34.286786
 21
24.047726
 31
0.0
  0
LINE
  5
231
330
6B
100
AcDbEntity
  8
0
100
AcDbLine
 10
34.286786
 20
24.047726
 30
0.0
 11
34.286786
 21
22.547726
 31
0.0
  0
LINE
  5
232
330
6B
100
AcDbEntity
  8
0
100
AcDbLine
 10
35.036786
 20
22.547726
 30
0.0
 11
34.286786
 21
22.547726
 31
0.0
  0
ARC
  5
233
330
6B
100
AcDbEntity
  8
0
100
AcDbCircle
 10
-133.635402
 20
38.922039
 30
0.0
 40
2.1875
100
AcDbArc
 50
328.997281
 51
211.002719
  0
ARC
  5
234
330
6B
100
AcDbEntity
  8
0
100
AcDbCircle
 10
-133.635402
 20
38.922039
 30
0.0
 40
2.1875
100
AcDbArc
 50
211.002719
 51
328.997281
  0
TEXT
  5
235
330
6B
100
AcDbEntity
  8
0
 62
     3
100
AcDbText
 10
128.8158844876903
 20
-72.22829200000003
 30
0.0
 40
4.5
  1
125V
  7
高4.5
100
AcDbText
  0
TEXT
  5
236
330
6B
100
AcDbEntity
  8
0
 62
     3
100
AcDbText
 10
132.4401494876903
 20
-77.85305
 30
0.0
 40
4.5
  1
10A
  7
高4.5
100
AcDbText
  0
LINE
  5
237
330
6B
100
AcDbEntity
  8
0
 62
     3
100
AcDbLine
 10
44.41178599999999
 20
24.297726
 30
0.0
 11
44.41178599999999
 21
23.297726
 31
0.0
  0
LINE
  5
238
330
6B
100
AcDbEntity
  8
0
 62
     3
100
AcDbLine
 10
35.349286
 20
24.547726
 30
0.0
 11
35.036786
 21
24.797726
 31
0.0
  0
LINE
  5
239
330
6B
100
AcDbEntity
  8
0
 62
     3
100
AcDbLine
 10
44.41178599999999
 20
22.297726
 30
0.0
 11
44.53678599999999
 21
21.985226
 31
0.0
  0
LINE
  5
23A
330
6B
100
AcDbEntity
  8
0
 62
     3
100
AcDbLine
 10
44.41178599999999
 20
22.297726
 30
0.0
 11
44.41178599999999
 21
23.297726
 31
0.0
  0
LINE
  5
23B
330
6B
100
AcDbEntity
  8
0
100
AcDbLine
 10
35.349286
 20
23.797726
 30
0.0
 11
42.03678599999999
 21
23.797726
 31
0.0
  0
LINE
  5
23C
330
6B
100
AcDbEntity
  8
0
100
AcDbLine
 10
42.03678599999999
 20
24.547726
 30
0.0
 11
42.03678599999999
 21
23.797726
 31
0.0
  0
LINE
  5
23D
330
6B
100
AcDbEntity
  8
0
100
AcDbLine
 10
42.03678599999999
 20
24.547726
 30
0.0
 11
42.259008
 21
24.797726
 31
0.0
  0
LINE
  5
23E
330
6B
100
AcDbEntity
  8
0
100
AcDbLine
 10
42.03678599999999
 20
23.797726
 30
0.0
 11
42.286786
 21
23.610226
 31
0.0
  0
LINE
  5
23F
330
6B
100
AcDbEntity
  8
0
100
AcDbLine
 10
42.286786
 20
23.610226
 30
0.0
 11
42.286786
 21
22.985226
 31
0.0
  0
LINE
  5
240
330
6B
100
AcDbEntity
  8
0
100
AcDbLine
 10
35.036786
 20
22.985226
 30
0.0
 11
42.286786
 21
22.985226
 31
0.0
  0
LINE
  5
241
330
6B
100
AcDbEntity
  8
0
100
AcDbLine
 10
42.03678599999999
 20
22.797726
 30
0.0
 11
42.286786
 21
22.985226
 31
0.0
  0
LINE
  5
242
330
6B
100
AcDbEntity
  8
0
100
AcDbLine
 10
42.03678599999999
 20
22.797726
 30
0.0
 11
42.03678599999999
 21
22.047726
 31
0.0
  0
LINE
  5
243
330
6B
100
AcDbEntity
  8
0
100
AcDbLine
 10
42.03678599999999
 20
22.047726
 30
0.0
 11
42.259008
 21
21.797726
 31
0.0
  0
LINE
  5
244
330
6B
100
AcDbEntity
  8
0
100
AcDbLine
 10
35.349286
 20
22.047726
 30
0.0
 11
42.03678599999999
 21
22.047726
 31
0.0
  0
LINE
  5
245
330
6B
100
AcDbEntity
  8
0
100
AcDbLine
 10
35.349286
 20
22.047726
 30
0.0
 11
35.036786
 21
21.797726
 31
0.0
  0
LINE
  5
246
330
6B
100
AcDbEntity
  8
0
100
AcDbLine
 10
35.349286
 20
22.797726
 30
0.0
 11
35.349286
 21
22.047726
 31
0.0
  0
LINE
  5
247
330
6B
100
AcDbEntity
  8
0
100
AcDbLine
 10
35.036786
 20
22.985226
 30
0.0
 11
35.349286
 21
22.797726
 31
0.0
  0
LINE
  5
248
330
6B
100
AcDbEntity
  8
0
100
AcDbLine
 10
35.036786
 20
23.610226
 30
0.0
 11
35.349286
 21
23.797726
 31
0.0
  0
LINE
  5
249
330
6B
100
AcDbEntity
  8
0
100
AcDbLine
 10
35.349286
 20
23.797726
 30
0.0
 11
35.349286
 21
24.547726
 31
0.0
  0
LINE
  5
24A
330
6B
100
AcDbEntity
  8
0
100
AcDbLine
 10
35.349286
 20
24.547726
 30
0.0
 11
42.03678599999999
 21
24.547726
 31
0.0
  0
LINE
  5
24B
330
6B
100
AcDbEntity
  8
0
100
AcDbLine
 10
42.53678599999999
 20
24.485226
 30
0.0
 11
42.53678599999999
 21
22.110226
 31
0.0
  0
LINE
  5
24C
330
6B
100
AcDbEntity
  8
0
100
AcDbLine
 10
44.911786
 20
21.985226
 30
0.0
 11
44.911786
 21
23.297726
 31
0.0
  0
LINE
  5
24D
330
6B
100
AcDbEntity
  8
0
100
AcDbLine
 10
44.911786
 20
24.610226
 30
0.0
 11
44.911786
 21
23.297726
 31
0.0
  0
LINE
  5
24E
330
6B
100
AcDbEntity
  8
0
 62
     3
100
AcDbLine
 10
123.684014
 20
18.993106
 30
0.0
 11
123.684014
 21
17.893106
 31
0.0
  0
ARC
  5
24F
330
6B
100
AcDbEntity
  8
0
 62
     3
100
AcDbCircle
 10
123.434014
 20
17.893106
 30
0.0
 40
0.25
100
AcDbArc
 50
270.0
 51
0.0
  0
ARC
  5
250
330
6B
100
AcDbEntity
  8
0
 62
     3
100
AcDbCircle
 10
123.434014
 20
18.993106
 30
0.0
 40
0.25
100
AcDbArc
 50
0.0
 51
90.0
  0
LINE
  5
251
330
6B
100
AcDbEntity
  8
0
 62
     3
100
AcDbLine
 10
116.784014
 20
18.843106
 30
0.0
 11
116.891706
 21
18.950798
 31
0.0
  0
LINE
  5
252
330
6B
100
AcDbEntity
  8
0
 62
     3
100
AcDbLine
 10
118.184014
 20
17.843106
 30
0.0
 11
118.184014
 21
17.643106
 31
0.0
  0
LINE
  5
253
330
6B
100
AcDbEntity
  8
0
 62
     3
100
AcDbLine
 10
118.184014
 20
19.043106
 30
0.0
 11
118.184014
 21
19.243106
 31
0.0
  0
LINE
  5
254
330
6B
100
AcDbEntity
  8
0
 62
     3
100
AcDbLine
 10
122.549969
 20
17.643106
 30
0.0
 11
123.434014
 21
17.643106
 31
0.0
  0
LINE
  5
255
330
6B
100
AcDbEntity
  8
0
 62
     3
100
AcDbLine
 10
122.549969
 20
19.243106
 30
0.0
 11
123.434014
 21
19.243106
 31
0.0
  0
LINE
  5
256
330
6B
100
AcDbEntity
  8
0
 62
     3
100
AcDbLine
 10
76.524969
 20
68.422714
 30
0.0
 11
76.524969
 21
9.422713999999999
 31
0.0
  0
LINE
  5
257
330
6B
100
AcDbEntity
  8
0
100
AcDbLine
 10
116.88376
 20
17.935981
 30
0.0
 11
116.784014
 21
18.051073
 31
0.0
  0
LINE
  5
258
330
6B
100
AcDbEntity
  8
0
100
AcDbLine
 10
116.784014
 20
18.843106
 30
0.0
 11
116.784014
 21
18.051073
 31
0.0
  0
LINE
  5
259
330
6B
100
AcDbEntity
  8
0
100
AcDbLine
 10
116.88376
 20
17.935981
 30
0.0
 11
116.88376
 21
18.950798
 31
0.0
  0
LINE
  5
25A
330
6B
100
AcDbEntity
  8
0
100
AcDbLine
 10
116.88376
 20
17.935981
 30
0.0
 11
118.184014
 21
17.843106
 31
0.0
  0
LINE
  5
25B
330
6B
100
AcDbEntity
  8
0
100
AcDbLine
 10
116.891706
 20
18.950798
 30
0.0
 11
118.184014
 21
19.043106
 31
0.0
  0
LINE
  5
25C
330
6B
100
AcDbEntity
  8
0
100
AcDbLine
 10
119.774969
 20
17.643106
 30
0.0
 11
118.184014
 21
17.643106
 31
0.0
  0
LINE
  5
25D
330
6B
100
AcDbEntity
  8
0
100
AcDbLine
 10
119.774969
 20
19.243106
 30
0.0
 11
118.184014
 21
19.243106
 31
0.0
  0
LINE
  5
25E
330
6B
100
AcDbEntity
  8
0
 62
     3
100
AcDbLine
 10
-195.0
 20
138.5
 30
0.0
 11
-195.0
 21
-138.5
 31
0.0
  0
LINE
  5
25F
330
6B
100
AcDbEntity
  8
0
 62
     3
100
AcDbLine
 10
195.0
 20
-138.5
 30
0.0
 11
195.0
 21
138.5
 31
0.0
  0
LINE
  5
260
330
6B
100
AcDbEntity
  8
0
 62
     3
100
AcDbLine
 10
-195.0
 20
138.5
 30
0.0
 11
195.0
 21
138.5
 31
0.0
  0
LINE
  5
261
330
6B
100
AcDbEntity
  8
0
 62
     3
100
AcDbLine
 10
-195.0
 20
-138.5
 30
0.0
 11
195.0
 21
-138.5
 31
0.0
  0
LINE
  5
262
330
6B
100
AcDbEntity
  8
0
 62
     3
100
AcDbLine
 10
-69.49870699999999
 20
2.810038999999998
 30
0.0
 11
-69.49870699999999
 21
0.672551
 31
0.0
  0
ARC
  5
263
330
6B
100
AcDbEntity
  8
0
 62
     3
100
AcDbCircle
 10
-161.622402
 20
2.810038999999998
 30
0.0
 40
1.387499999999999
100
AcDbArc
 50
138.173766
 51
318.173766
  0
LINE
  5
264
330
6B
100
AcDbEntity
  8
0
 62
     3
100
AcDbLine
 10
119.774969
 20
40.922714
 30
0.0
 11
117.274969
 21
40.922714
 31
0.0
  0
LINE
  5
265
330
6B
100
AcDbEntity
  8
0
 62
     3
100
AcDbLine
 10
119.774969
 20
36.922714
 30
0.0
 11
117.274969
 21
36.922714
 31
0.0
  0
LINE
  5
266
330
6B
100
AcDbEntity
  8
0
  6
DASHED
100
AcDbLine
 10
76.524969
 20
30.797714
 30
0.0
 11
76.124969
 21
30.797714
 31
0.0
  0
ARC
  5
267
330
6B
100
AcDbEntity
  8
0
 62
     3
100
AcDbCircle
 10
-68.111207
 20
2.810038999999998
 30
0.0
 40
1.387499999999999
100
AcDbArc
 50
138.173766
 51
318.173766
  0
ARC
  5
268
330
6B
100
AcDbEntity
  8
0
 62
     3
100
AcDbCircle
 10
-12.137207
 20
2.810038999999998
 30
0.0
 40
1.387499999999999
100
AcDbArc
 50
221.826234
 51
41.82623399999999
  0
CIRCLE
  5
269
330
6B
100
AcDbEntity
  8
0
100
AcDbCircle
 10
55.330877
 20
38.922714
 30
0.0
 40
0.75
  0
ARC
  5
26A
330
6B
100
AcDbEntity
  8
0
100
AcDbCircle
 10
55.330877
 20
40.922714
 30
0.0
 40
0.75
100
AcDbArc
 50
0.0
 51
180.0
  0
CIRCLE
  5
26B
330
6B
100
AcDbEntity
  8
0
100
AcDbCircle
 10
47.03678599999999
 20
38.922714
 30
0.0
 40
0.75
  0
ARC
  5
26C
330
6B
100
AcDbEntity
  8
0
100
AcDbCircle
 10
47.03678599999999
 20
42.047726
 30
0.0
 40
0.75
100
AcDbArc
 50
0.0
 51
180.0
  0
CIRCLE
  5
26D
330
6B
100
AcDbEntity
  8
0
100
AcDbCircle
 10
-23.88623
 20
48.297539
 30
0.0
 40
1.0
  0
LINE
  5
26E
330
6B
100
AcDbEntity
  8
0
100
AcDbLine
 10
-23.020205
 20
48.797539
 30
0.0
 11
-23.020205
 21
47.797539
 31
0.0
  0
LINE
  5
26F
330
6B
100
AcDbEntity
  8
0
100
AcDbLine
 10
-23.020205
 20
48.797539
 30
0.0
 11
-23.88623
 21
49.297539
 31
0.0
  0
LINE
  5
270
330
6B
100
AcDbEntity
  8
0
100
AcDbLine
 10
-23.88623
 20
49.297539
 30
0.0
 11
-24.752256
 21
48.797539
 31
0.0
  0
LINE
  5
271
330
6B
100
AcDbEntity
  8
0
100
AcDbLine
 10
-24.752256
 20
48.797539
 30
0.0
 11
-24.752256
 21
47.797539
 31
0.0
  0
LINE
  5
272
330
6B
100
AcDbEntity
  8
0
100
AcDbLine
 10
-23.88623
 20
47.297539
 30
0.0
 11
-24.752256
 21
47.797539
 31
0.0
  0
LINE
  5
273
330
6B
100
AcDbEntity
  8
0
100
AcDbLine
 10
-23.020205
 20
47.797539
 30
0.0
 11
-23.88623
 21
47.297539
 31
0.0
  0
CIRCLE
  5
274
330
6B
100
AcDbEntity
  8
0
100
AcDbCircle
 10
-23.88623
 20
48.297539
 30
0.0
 40
0.5
  0
CIRCLE
  5
275
330
6B
100
AcDbEntity
  8
0
100
AcDbCircle
 10
-23.88623
 20
29.547539
 30
0.0
 40
1.0
  0
LINE
  5
276
330
6B
100
AcDbEntity
  8
0
100
AcDbLine
 10
-23.020205
 20
29.047539
 30
0.0
 11
-23.88623
 21
28.547539
 31
0.0
  0
LINE
  5
277
330
6B
100
AcDbEntity
  8
0
100
AcDbLine
 10
-23.020205
 20
29.047539
 30
0.0
 11
-23.020205
 21
30.047539
 31
0.0
  0
LINE
  5
278
330
6B
100
AcDbEntity
  8
0
100
AcDbLine
 10
-23.020205
 20
30.047539
 30
0.0
 11
-23.88623
 21
30.547539
 31
0.0
  0
LINE
  5
279
330
6B
100
AcDbEntity
  8
0
100
AcDbLine
 10
-23.88623
 20
30.547539
 30
0.0
 11
-24.752256
 21
30.047539
 31
0.0
  0
LINE
  5
27A
330
6B
100
AcDbEntity
  8
0
100
AcDbLine
 10
-24.752256
 20
29.047539
 30
0.0
 11
-24.752256
 21
30.047539
 31
0.0
  0
LINE
  5
27B
330
6B
100
AcDbEntity
  8
0
100
AcDbLine
 10
-23.88623
 20
28.547539
 30
0.0
 11
-24.752256
 21
29.047539
 31
0.0
  0
CIRCLE
  5
27C
330
6B
100
AcDbEntity
  8
0
100
AcDbCircle
 10
-23.88623
 20
29.547539
 30
0.0
 40
0.5
  0
CIRCLE
  5
27D
330
6B
100
AcDbEntity
  8
0
100
AcDbCircle
 10
-40.12420699999998
 20
57.672539
 30
0.0
 40
1.0
  0
LINE
  5
27E
330
6B
100
AcDbEntity
  8
0
100
AcDbLine
 10
-40.12420699999998
 20
58.672539
 30
0.0
 11
-40.990232
 21
58.172539
 31
0.0
  0
LINE
  5
27F
330
6B
100
AcDbEntity
  8
0
100
AcDbLine
 10
-40.990232
 20
58.172539
 30
0.0
 11
-40.990232
 21
57.172539
 31
0.0
  0
LINE
  5
280
330
6B
100
AcDbEntity
  8
0
100
AcDbLine
 10
-40.990232
 20
57.172539
 30
0.0
 11
-40.12420699999998
 21
56.672539
 31
0.0
  0
LINE
  5
281
330
6B
100
AcDbEntity
  8
0
100
AcDbLine
 10
-40.12420699999998
 20
58.672539
 30
0.0
 11
-39.258181
 21
58.172539
 31
0.0
  0
LINE
  5
282
330
6B
100
AcDbEntity
  8
0
100
AcDbLine
 10
-39.258181
 20
58.172539
 30
0.0
 11
-39.258181
 21
57.172539
 31
0.0
  0
LINE
  5
283
330
6B
100
AcDbEntity
  8
0
100
AcDbLine
 10
-39.258181
 20
57.172539
 30
0.0
 11
-40.12420699999998
 21
56.672539
 31
0.0
  0
CIRCLE
  5
284
330
6B
100
AcDbEntity
  8
0
100
AcDbCircle
 10
-40.12420699999998
 20
57.672539
 30
0.0
 40
0.5
  0
CIRCLE
  5
285
330
6B
100
AcDbEntity
  8
0
100
AcDbCircle
 10
-56.36218299999999
 20
48.297539
 30
0.0
 40
1.0
  0
LINE
  5
286
330
6B
100
AcDbEntity
  8
0
100
AcDbLine
 10
-57.228209
 20
48.797539
 30
0.0
 11
-56.36218299999999
 21
49.297539
 31
0.0
  0
LINE
  5
287
330
6B
100
AcDbEntity
  8
0
100
AcDbLine
 10
-57.228209
 20
48.797539
 30
0.0
 11
-57.228209
 21
47.797539
 31
0.0
  0
LINE
  5
288
330
6B
100
AcDbEntity
  8
0
100
AcDbLine
 10
-57.228209
 20
47.797539
 30
0.0
 11
-56.36218299999999
 21
47.297539
 31
0.0
  0
LINE
  5
289
330
6B
100
AcDbEntity
  8
0
100
AcDbLine
 10
-56.36218299999999
 20
47.297539
 30
0.0
 11
-55.49615799999997
 21
47.797539
 31
0.0
  0
LINE
  5
28A
330
6B
100
AcDbEntity
  8
0
100
AcDbLine
 10
-55.49615799999997
 20
48.797539
 30
0.0
 11
-55.49615799999997
 21
47.797539
 31
0.0
  0
LINE
  5
28B
330
6B
100
AcDbEntity
  8
0
100
AcDbLine
 10
-56.36218299999999
 20
49.297539
 30
0.0
 11
-55.49615799999997
 21
48.797539
 31
0.0
  0
CIRCLE
  5
28C
330
6B
100
AcDbEntity
  8
0
100
AcDbCircle
 10
-56.36218299999999
 20
48.297539
 30
0.0
 40
0.5
  0
CIRCLE
  5
28D
330
6B
100
AcDbEntity
  8
0
100
AcDbCircle
 10
-56.36218299999999
 20
29.547539
 30
0.0
 40
1.0
  0
LINE
  5
28E
330
6B
100
AcDbEntity
  8
0
100
AcDbLine
 10
-57.228209
 20
29.047539
 30
0.0
 11
-57.228209
 21
30.047539
 31
0.0
  0
LINE
  5
28F
330
6B
100
AcDbEntity
  8
0
100
AcDbLine
 10
-57.228209
 20
29.047539
 30
0.0
 11
-56.36218299999999
 21
28.547539
 31
0.0
  0
LINE
  5
290
330
6B
100
AcDbEntity
  8
0
100
AcDbLine
 10
-56.36218299999999
 20
28.547539
 30
0.0
 11
-55.49615799999997
 21
29.047539
 31
0.0
  0
LINE
  5
291
330
6B
100
AcDbEntity
  8
0
100
AcDbLine
 10
-55.49615799999997
 20
29.047539
 30
0.0
 11
-55.49615799999997
 21
30.047539
 31
0.0
  0
LINE
  5
292
330
6B
100
AcDbEntity
  8
0
100
AcDbLine
 10
-56.36218299999999
 20
30.547539
 30
0.0
 11
-55.49615799999997
 21
30.047539
 31
0.0
  0
LINE
  5
293
330
6B
100
AcDbEntity
  8
0
100
AcDbLine
 10
-57.228209
 20
30.047539
 30
0.0
 11
-56.36218299999999
 21
30.547539
 31
0.0
  0
CIRCLE
  5
294
330
6B
100
AcDbEntity
  8
0
100
AcDbCircle
 10
-56.36218299999999
 20
29.547539
 30
0.0
 40
0.5
  0
CIRCLE
  5
295
330
6B
100
AcDbEntity
  8
0
100
AcDbCircle
 10
-40.12420699999998
 20
20.172539
 30
0.0
 40
1.0
  0
LINE
  5
296
330
6B
100
AcDbEntity
  8
0
100
AcDbLine
 10
-40.12420699999998
 20
19.172539
 30
0.0
 11
-40.990232
 21
19.672539
 31
0.0
  0
LINE
  5
297
330
6B
100
AcDbEntity
  8
0
100
AcDbLine
 10
-40.12420699999998
 20
19.172539
 30
0.0
 11
-39.258181
 21
19.672539
 31
0.0
  0
LINE
  5
298
330
6B
100
AcDbEntity
  8
0
100
AcDbLine
 10
-39.258181
 20
19.672539
 30
0.0
 11
-39.258181
 21
20.672539
 31
0.0
  0
LINE
  5
299
330
6B
100
AcDbEntity
  8
0
100
AcDbLine
 10
-39.258181
 20
20.672539
 30
0.0
 11
-40.12420699999998
 21
21.172539
 31
0.0
  0
LINE
  5
29A
330
6B
100
AcDbEntity
  8
0
100
AcDbLine
 10
-40.990232
 20
20.672539
 30
0.0
 11
-40.12420699999998
 21
21.172539
 31
0.0
  0
LINE
  5
29B
330
6B
100
AcDbEntity
  8
0
100
AcDbLine
 10
-40.990232
 20
19.672539
 30
0.0
 11
-40.990232
 21
20.672539
 31
0.0
  0
CIRCLE
  5
29C
330
6B
100
AcDbEntity
  8
0
100
AcDbCircle
 10
-40.12420699999998
 20
20.172539
 30
0.0
 40
0.5
  0
CIRCLE
  5
29D
330
6B
100
AcDbEntity
  8
0
100
AcDbCircle
 10
-117.397426
 20
29.547539
 30
0.0
 40
1.0
  0
LINE
  5
29E
330
6B
100
AcDbEntity
  8
0
100
AcDbLine
 10
-116.5314
 20
29.047539
 30
0.0
 11
-117.397426
 21
28.547539
 31
0.0
  0
LINE
  5
29F
330
6B
100
AcDbEntity
  8
0
100
AcDbLine
 10
-116.5314
 20
29.047539
 30
0.0
 11
-116.5314
 21
30.047539
 31
0.0
  0
LINE
  5
2A0
330
6B
100
AcDbEntity
  8
0
100
AcDbLine
 10
-116.5314
 20
30.047539
 30
0.0
 11
-117.397426
 21
30.547539
 31
0.0
  0
LINE
  5
2A1
330
6B
100
AcDbEntity
  8
0
100
AcDbLine
 10
-117.397426
 20
30.547539
 30
0.0
 11
-118.263451
 21
30.047539
 31
0.0
  0
LINE
  5
2A2
330
6B
100
AcDbEntity
  8
0
100
AcDbLine
 10
-118.263451
 20
29.047539
 30
0.0
 11
-118.263451
 21
30.047539
 31
0.0
  0
LINE
  5
2A3
330
6B
100
AcDbEntity
  8
0
100
AcDbLine
 10
-117.397426
 20
28.547539
 30
0.0
 11
-118.263451
 21
29.047539
 31
0.0
  0
CIRCLE
  5
2A4
330
6B
100
AcDbEntity
  8
0
100
AcDbCircle
 10
-117.397426
 20
29.547539
 30
0.0
 40
0.5
  0
CIRCLE
  5
2A5
330
6B
100
AcDbEntity
  8
0
100
AcDbCircle
 10
-133.635402
 20
20.172539
 30
0.0
 40
1.0
  0
LINE
  5
2A6
330
6B
100
AcDbEntity
  8
0
100
AcDbLine
 10
-133.635402
 20
19.172539
 30
0.0
 11
-134.501427
 21
19.672539
 31
0.0
  0
LINE
  5
2A7
330
6B
100
AcDbEntity
  8
0
100
AcDbLine
 10
-133.635402
 20
19.172539
 30
0.0
 11
-132.769376
 21
19.672539
 31
0.0
  0
LINE
  5
2A8
330
6B
100
AcDbEntity
  8
0
100
AcDbLine
 10
-132.769376
 20
19.672539
 30
0.0
 11
-132.769376
 21
20.672539
 31
0.0
  0
LINE
  5
2A9
330
6B
100
AcDbEntity
  8
0
100
AcDbLine
 10
-132.769376
 20
20.672539
 30
0.0
 11
-133.635402
 21
21.172539
 31
0.0
  0
LINE
  5
2AA
330
6B
100
AcDbEntity
  8
0
100
AcDbLine
 10
-134.501427
 20
20.672539
 30
0.0
 11
-133.635402
 21
21.172539
 31
0.0
  0
LINE
  5
2AB
330
6B
100
AcDbEntity
  8
0
100
AcDbLine
 10
-134.501427
 20
19.672539
 30
0.0
 11
-134.501427
 21
20.672539
 31
0.0
  0
CIRCLE
  5
2AC
330
6B
100
AcDbEntity
  8
0
100
AcDbCircle
 10
-133.635402
 20
20.172539
 30
0.0
 40
0.5
  0
CIRCLE
  5
2AD
330
6B
100
AcDbEntity
  8
0
100
AcDbCircle
 10
-149.873378
 20
29.547539
 30
0.0
 40
1.0
  0
LINE
  5
2AE
330
6B
100
AcDbEntity
  8
0
100
AcDbLine
 10
-150.739404
 20
29.047539
 30
0.0
 11
-150.739404
 21
30.047539
 31
0.0
  0
LINE
  5
2AF
330
6B
100
AcDbEntity
  8
0
100
AcDbLine
 10
-150.739404
 20
29.047539
 30
0.0
 11
-149.873378
 21
28.547539
 31
0.0
  0
LINE
  5
2B0
330
6B
100
AcDbEntity
  8
0
100
AcDbLine
 10
-149.873378
 20
28.547539
 30
0.0
 11
-149.007353
 21
29.047539
 31
0.0
  0
LINE
  5
2B1
330
6B
100
AcDbEntity
  8
0
100
AcDbLine
 10
-149.007353
 20
29.047539
 30
0.0
 11
-149.007353
 21
30.047539
 31
0.0
  0
LINE
  5
2B2
330
6B
100
AcDbEntity
  8
0
100
AcDbLine
 10
-149.873378
 20
30.547539
 30
0.0
 11
-149.007353
 21
30.047539
 31
0.0
  0
LINE
  5
2B3
330
6B
100
AcDbEntity
  8
0
100
AcDbLine
 10
-150.739404
 20
30.047539
 30
0.0
 11
-149.873378
 21
30.547539
 31
0.0
  0
CIRCLE
  5
2B4
330
6B
100
AcDbEntity
  8
0
100
AcDbCircle
 10
-149.873378
 20
29.547539
 30
0.0
 40
0.5
  0
CIRCLE
  5
2B5
330
6B
100
AcDbEntity
  8
0
100
AcDbCircle
 10
-149.873378
 20
48.297539
 30
0.0
 40
1.0
  0
LINE
  5
2B6
330
6B
100
AcDbEntity
  8
0
100
AcDbLine
 10
-150.739404
 20
48.797539
 30
0.0
 11
-149.873378
 21
49.297539
 31
0.0
  0
LINE
  5
2B7
330
6B
100
AcDbEntity
  8
0
100
AcDbLine
 10
-150.739404
 20
48.797539
 30
0.0
 11
-150.739404
 21
47.797539
 31
0.0
  0
LINE
  5
2B8
330
6B
100
AcDbEntity
  8
0
100
AcDbLine
 10
-150.739404
 20
47.797539
 30
0.0
 11
-149.873378
 21
47.297539
 31
0.0
  0
LINE
  5
2B9
330
6B
100
AcDbEntity
  8
0
100
AcDbLine
 10
-149.873378
 20
47.297539
 30
0.0
 11
-149.007353
 21
47.797539
 31
0.0
  0
LINE
  5
2BA
330
6B
100
AcDbEntity
  8
0
100
AcDbLine
 10
-149.007353
 20
48.797539
 30
0.0
 11
-149.007353
 21
47.797539
 31
0.0
  0
LINE
  5
2BB
330
6B
100
AcDbEntity
  8
0
100
AcDbLine
 10
-149.873378
 20
49.297539
 30
0.0
 11
-149.007353
 21
48.797539
 31
0.0
  0
CIRCLE
  5
2BC
330
6B
100
AcDbEntity
  8
0
100
AcDbCircle
 10
-149.873378
 20
48.297539
 30
0.0
 40
0.5
  0
CIRCLE
  5
2BD
330
6B
100
AcDbEntity
  8
0
100
AcDbCircle
 10
-133.635402
 20
57.672539
 30
0.0
 40
1.0
  0
LINE
  5
2BE
330
6B
100
AcDbEntity
  8
0
100
AcDbLine
 10
-133.635402
 20
58.672539
 30
0.0
 11
-134.501427
 21
58.172539
 31
0.0
  0
LINE
  5
2BF
330
6B
100
AcDbEntity
  8
0
100
AcDbLine
 10
-134.501427
 20
58.172539
 30
0.0
 11
-134.501427
 21
57.172539
 31
0.0
  0
LINE
  5
2C0
330
6B
100
AcDbEntity
  8
0
100
AcDbLine
 10
-134.501427
 20
57.172539
 30
0.0
 11
-133.635402
 21
56.672539
 31
0.0
  0
LINE
  5
2C1
330
6B
100
AcDbEntity
  8
0
100
AcDbLine
 10
-133.635402
 20
58.672539
 30
0.0
 11
-132.769376
 21
58.172539
 31
0.0
  0
LINE
  5
2C2
330
6B
100
AcDbEntity
  8
0
100
AcDbLine
 10
-132.769376
 20
58.172539
 30
0.0
 11
-132.769376
 21
57.172539
 31
0.0
  0
LINE
  5
2C3
330
6B
100
AcDbEntity
  8
0
100
AcDbLine
 10
-132.769376
 20
57.172539
 30
0.0
 11
-133.635402
 21
56.672539
 31
0.0
  0
CIRCLE
  5
2C4
330
6B
100
AcDbEntity
  8
0
100
AcDbCircle
 10
-133.635402
 20
57.672539
 30
0.0
 40
0.5
  0
LINE
  5
2C5
330
6B
100
AcDbEntity
  8
0
100
AcDbLine
 10
-117.397426
 20
49.297539
 30
0.0
 11
-118.263451
 21
48.797539
 31
0.0
  0
LINE
  5
2C6
330
6B
100
AcDbEntity
  8
0
100
AcDbLine
 10
-118.263451
 20
48.797539
 30
0.0
 11
-118.263451
 21
47.797539
 31
0.0
  0
LINE
  5
2C7
330
6B
100
AcDbEntity
  8
0
100
AcDbLine
 10
-117.397426
 20
47.297539
 30
0.0
 11
-118.263451
 21
47.797539
 31
0.0
  0
CIRCLE
  5
2C8
330
6B
100
AcDbEntity
  8
0
100
AcDbCircle
 10
-117.397426
 20
48.297539
 30
0.0
 40
0.5
  0
LINE
  5
2C9
330
6B
100
AcDbEntity
  8
0
100
AcDbLine
 10
-116.5314
 20
47.797539
 30
0.0
 11
-117.397426
 21
47.297539
 31
0.0
  0
CIRCLE
  5
2CA
330
6B
100
AcDbEntity
  8
0
100
AcDbCircle
 10
-117.397426
 20
48.297539
 30
0.0
 40
1.0
  0
LINE
  5
2CB
330
6B
100
AcDbEntity
  8
0
100
AcDbLine
 10
-116.5314
 20
48.797539
 30
0.0
 11
-117.397426
 21
49.297539
 31
0.0
  0
LINE
  5
2CC
330
6B
100
AcDbEntity
  8
0
100
AcDbLine
 10
-116.5314
 20
48.797539
 30
0.0
 11
-116.5314
 21
47.797539
 31
0.0
  0
ARC
  5
2CD
330
6B
100
AcDbEntity
  8
0
100
AcDbCircle
 10
-133.635402
 20
38.922539
 30
0.0
 40
29.0
100
AcDbArc
 50
308.190177
 51
63.08417299999999
  0
ARC
  5
2CE
330
6B
100
AcDbEntity
  8
0
100
AcDbCircle
 10
-133.635402
 20
38.922539
 30
0.0
 40
29.0
100
AcDbArc
 50
69.084459
 51
110.913426
  0
ARC
  5
2CF
330
6B
100
AcDbEntity
  8
0
100
AcDbCircle
 10
-133.635402
 20
38.922539
 30
0.0
 40
29.0
100
AcDbArc
 50
116.913611
 51
231.811299
  0
ARC
  5
2D0
330
6B
100
AcDbEntity
  8
0
100
AcDbCircle
 10
-40.12420699999998
 20
38.922539
 30
0.0
 40
29.0
100
AcDbArc
 50
116.907795
 51
231.811299
  0
ARC
  5
2D1
330
6B
100
AcDbEntity
  8
0
100
AcDbCircle
 10
-40.12420699999998
 20
38.922539
 30
0.0
 40
29.0
100
AcDbArc
 50
69.088425
 51
110.907874
  0
ARC
  5
2D2
330
6B
100
AcDbEntity
  8
0
100
AcDbCircle
 10
-40.12420699999998
 20
38.922539
 30
0.0
 40
29.0
100
AcDbArc
 50
308.190177
 51
63.08417299999999
  0
LINE
  5
2D3
330
6B
100
AcDbEntity
  8
0
100
AcDbLine
 10
75.649969
 20
36.922714
 30
0.0
 11
75.649969
 21
9.422713999999999
 31
0.0
  0
LINE
  5
2D4
330
6B
100
AcDbEntity
  8
0
100
AcDbLine
 10
75.649969
 20
40.922714
 30
0.0
 11
75.649969
 21
68.422714
 31
0.0
  0
LINE
  5
2D5
330
6B
100
AcDbEntity
  8
0
100
AcDbLine
 10
118.149969
 20
40.922714
 30
0.0
 11
118.149969
 21
68.422714
 31
0.0
  0
ARC
  5
2D6
330
6B
100
AcDbEntity
  8
0
100
AcDbCircle
 10
117.649969
 20
68.422714
 30
0.0
 40
0.5
100
AcDbArc
 50
0.0
 51
180.0
  0
ARC
  5
2D7
330
6B
100
AcDbEntity
  8
0
100
AcDbCircle
 10
76.149969
 20
68.422714
 30
0.0
 40
0.5
100
AcDbArc
 50
0.0
 51
180.0
  0
ARC
  5
2D8
330
6B
100
AcDbEntity
  8
0
100
AcDbCircle
 10
76.149969
 20
68.422714
 30
0.0
 40
0.5
100
AcDbArc
 50
180.0
 51
0.0
  0
ARC
  5
2D9
330
6B
100
AcDbEntity
  8
0
100
AcDbCircle
 10
117.649969
 20
68.422714
 30
0.0
 40
0.5
100
AcDbArc
 50
180.0
 51
0.0
  0
LINE
  5
2DA
330
6B
100
AcDbEntity
  8
0
100
AcDbLine
 10
118.149969
 20
36.922714
 30
0.0
 11
118.149969
 21
9.422713999999999
 31
0.0
  0
ARC
  5
2DB
330
6B
100
AcDbEntity
  8
0
100
AcDbCircle
 10
117.649969
 20
9.422713999999999
 30
0.0
 40
0.5
100
AcDbArc
 50
180.0
 51
0.0
  0
ARC
  5
2DC
330
6B
100
AcDbEntity
  8
0
100
AcDbCircle
 10
76.149969
 20
9.422713999999999
 30
0.0
 40
0.5
100
AcDbArc
 50
180.0
 51
0.0
  0
ARC
  5
2DD
330
6B
100
AcDbEntity
  8
0
100
AcDbCircle
 10
117.649969
 20
9.422713999999999
 30
0.0
 40
0.5
100
AcDbArc
 50
0.0
 51
180.0
  0
ARC
  5
2DE
330
6B
100
AcDbEntity
  8
0
100
AcDbCircle
 10
76.149969
 20
9.422713999999999
 30
0.0
 40
0.5
100
AcDbArc
 50
0.0
 51
180.0
  0
LINE
  5
2DF
330
6B
100
AcDbEntity
  8
0
 62
     3
100
AcDbLine
 10
69.024969
 20
45.726015
 30
0.0
 11
69.024969
 21
43.422714
 31
0.0
  0
LINE
  5
2E0
330
6B
100
AcDbEntity
  8
0
 62
     3
100
AcDbLine
 10
75.524969
 20
43.422714
 30
0.0
 11
69.024969
 21
43.422714
 31
0.0
  0
LINE
  5
2E1
330
6B
100
AcDbEntity
  8
0
 62
     3
100
AcDbLine
 10
75.524969
 20
45.922714
 30
0.0
 11
75.524969
 21
43.422714
 31
0.0
  0
LINE
  5
2E2
330
6B
100
AcDbEntity
  8
0
 62
     3
100
AcDbLine
 10
67.02496899999998
 20
40.940883
 30
0.0
 11
69.024969
 21
43.422714
 31
0.0
  0
LINE
  5
2E3
330
6B
100
AcDbEntity
  8
0
 62
     3
100
AcDbLine
 10
75.524969
 20
34.422714
 30
0.0
 11
69.024969
 21
34.422714
 31
0.0
  0
LINE
  5
2E4
330
6B
100
AcDbEntity
  8
0
 62
     3
100
AcDbLine
 10
71.024969
 20
31.922714
 30
0.0
 11
75.524969
 21
31.922714
 31
0.0
  0
ARC
  5
2E5
330
6B
100
AcDbEntity
  8
0
 62
     3
100
AcDbCircle
 10
71.524969
 20
29.922714
 30
0.0
 40
0.5
100
AcDbArc
 50
180.0
 51
270.0
  0
LINE
  5
2E6
330
6B
100
AcDbEntity
  8
0
 62
     3
100
AcDbLine
 10
67.02496899999998
 20
36.904545
 30
0.0
 11
69.024969
 21
34.422714
 31
0.0
  0
LINE
  5
2E7
330
6B
100
AcDbEntity
  8
0
 62
     3
100
AcDbLine
 10
69.024969
 20
32.119413
 30
0.0
 11
69.024969
 21
34.422714
 31
0.0
  0
LINE
  5
2E8
330
6B
100
AcDbEntity
  8
0
 62
     3
100
AcDbLine
 10
62.52496899999999
 20
37.922714
 30
0.0
 11
62.52496899999999
 21
39.922714
 31
0.0
  0
LINE
  5
2E9
330
6B
100
AcDbEntity
  8
0
 62
     3
100
AcDbLine
 10
59.52496899999999
 20
37.922714
 30
0.0
 11
59.52496899999999
 21
39.922714
 31
0.0
  0
LINE
  5
2EA
330
6B
100
AcDbEntity
  8
0
 62
     3
100
AcDbLine
 10
62.02496899999999
 20
40.42271399999999
 30
0.0
 11
60.02496899999999
 21
40.42271399999999
 31
0.0
  0
LINE
  5
2EB
330
6B
100
AcDbEntity
  8
0
 62
     3
100
AcDbLine
 10
62.02496899999999
 20
37.422714
 30
0.0
 11
60.02496899999999
 21
37.422714
 31
0.0
  0
ARC
  5
2EC
330
6B
100
AcDbEntity
  8
0
 62
     3
100
AcDbCircle
 10
60.02496899999999
 20
39.922714
 30
0.0
 40
0.5
100
AcDbArc
 50
90.0
 51
180.0
  0
ARC
  5
2ED
330
6B
100
AcDbEntity
  8
0
 62
     3
100
AcDbCircle
 10
60.02496899999999
 20
37.922714
 30
0.0
 40
0.5
100
AcDbArc
 50
180.0
 51
270.0
  0
ARC
  5
2EE
330
6B
100
AcDbEntity
  8
0
 62
     3
100
AcDbCircle
 10
62.02496899999999
 20
39.922714
 30
0.0
 40
0.5
100
AcDbArc
 50
0.0
 51
90.0
  0
ARC
  5
2EF
330
6B
100
AcDbEntity
  8
0
 62
     3
100
AcDbCircle
 10
62.02496899999999
 20
37.922714
 30
0.0
 40
0.5
100
AcDbArc
 50
270.0
 51
0.0
  0
LINE
  5
2F0
330
6B
100
AcDbEntity
  8
0
 62
     3
100
AcDbLine
 10
67.02496899999998
 20
40.940883
 30
0.0
 11
67.02496899999998
 21
36.904545
 31
0.0
  0
LINE
  5
2F1
330
6B
100
AcDbEntity
  8
0
 62
     3
100
AcDbLine
 10
62.45798199999999
 20
40.172714
 30
0.0
 11
66.524969
 21
40.42271399999999
 31
0.0
  0
LINE
  5
2F2
330
6B
100
AcDbEntity
  8
0
 62
     3
100
AcDbLine
 10
62.45798199999999
 20
37.672714
 30
0.0
 11
66.524969
 21
37.422714
 31
0.0
  0
LINE
  5
2F3
330
6B
100
AcDbEntity
  8
0
 62
     3
100
AcDbLine
 10
-30.124207
 20
49.922539
 30
0.0
 11
-32.624207
 21
49.922539
 31
0.0
  0
ARC
  5
2F4
330
6B
100
AcDbEntity
  8
0
 62
     3
100
AcDbCircle
 10
-30.124207
 20
57.922539
 30
0.0
 40
1.25
100
AcDbArc
 50
73.60844799999998
 51
143.130102
  0
ARC
  5
2F5
330
6B
100
AcDbEntity
  8
0
100
AcDbCircle
 10
63.02496899999999
 20
25.922714
 30
0.0
 40
0.5
100
AcDbArc
 50
180.0
 51
0.0
  0
ARC
  5
2F6
330
6B
100
AcDbEntity
  8
0
100
AcDbCircle
 10
73.024969
 20
29.172714
 30
0.0
 40
1.25
100
AcDbArc
 50
216.869898
 51
323.130102
  0
LINE
  5
2F7
330
6B
100
AcDbEntity
  8
0
100
AcDbLine
 10
76.024969
 20
28.422714
 30
0.0
 11
70.024969
 21
28.422714
 31
0.0
  0
ARC
  5
2F8
330
6B
100
AcDbEntity
  8
0
100
AcDbCircle
 10
75.524969
 20
29.172714
 30
0.0
 40
1.25
100
AcDbArc
 50
216.869898
 51
270.0
  0
LINE
  5
2F9
330
6B
100
AcDbEntity
  8
0
100
AcDbLine
 10
74.52496899999998
 20
29.422714
 30
0.0
 11
74.52496899999998
 21
28.422714
 31
0.0
  0
LINE
  5
2FA
330
6B
100
AcDbEntity
  8
0
100
AcDbLine
 10
74.024969
 20
29.422714
 30
0.0
 11
74.024969
 21
28.422714
 31
0.0
  0
ARC
  5
2FB
330
6B
100
AcDbEntity
  8
0
100
AcDbCircle
 10
70.524969
 20
29.172714
 30
0.0
 40
1.25
100
AcDbArc
 50
270.0
 51
323.130102
  0
LINE
  5
2FC
330
6B
100
AcDbEntity
  8
0
100
AcDbLine
 10
71.524969
 20
29.422714
 30
0.0
 11
71.524969
 21
28.422714
 31
0.0
  0
LINE
  5
2FD
330
6B
100
AcDbEntity
  8
0
100
AcDbLine
 10
72.02496899999998
 20
29.422714
 30
0.0
 11
72.02496899999998
 21
28.422714
 31
0.0
  0
LINE
  5
2FE
330
6B
100
AcDbEntity
  8
0
100
AcDbLine
 10
70.524969
 20
27.92271400000001
 30
0.0
 11
75.524969
 21
27.92271400000001
 31
0.0
  0
LINE
  5
2FF
330
6B
100
AcDbEntity
  8
0
100
AcDbLine
 10
76.024969
 20
28.422714
 30
0.0
 11
76.024969
 21
29.422714
 31
0.0
  0
LINE
  5
300
330
6B
100
AcDbEntity
  8
0
100
AcDbLine
 10
75.524969
 20
27.92271400000001
 30
0.0
 11
76.024969
 21
28.422714
 31
0.0
  0
LINE
  5
301
330
6B
100
AcDbEntity
  8
0
100
AcDbLine
 10
70.524969
 20
27.92271400000001
 30
0.0
 11
70.024969
 21
28.422714
 31
0.0
  0
LINE
  5
302
330
6B
100
AcDbEntity
  8
0
100
AcDbLine
 10
70.024969
 20
28.422714
 30
0.0
 11
70.024969
 21
29.422714
 31
0.0
  0
LINE
  5
303
330
6B
100
AcDbEntity
  8
0
100
AcDbLine
 10
75.024969
 20
29.422714
 30
0.0
 11
70.024969
 21
29.422714
 31
0.0
  0
ARC
  5
304
330
6B
100
AcDbEntity
  8
0
100
AcDbCircle
 10
75.024969
 20
29.922714
 30
0.0
 40
0.5
100
AcDbArc
 50
270.0
 51
0.0
  0
LINE
  5
305
330
6B
100
AcDbEntity
  8
0
100
AcDbLine
 10
76.024969
 20
29.422714
 30
0.0
 11
76.524969
 21
29.422714
 31
0.0
  0
ARC
  5
306
330
6B
100
AcDbEntity
  8
0
100
AcDbCircle
 10
76.024969
 20
29.922714
 30
0.0
 40
0.5
100
AcDbArc
 50
180.0
 51
270.0
  0
LINE
  5
307
330
6B
100
AcDbEntity
  8
0
100
AcDbLine
 10
75.524969
 20
29.922714
 30
0.0
 11
75.524969
 21
34.422714
 31
0.0
  0
LINE
  5
308
330
6B
100
AcDbEntity
  8
0
100
AcDbLine
 10
75.024969
 20
27.92271400000001
 30
0.0
 11
75.024969
 21
24.422714
 31
0.0
  0
LINE
  5
309
330
6B
100
AcDbEntity
  8
0
100
AcDbLine
 10
71.024969
 20
27.92271400000001
 30
0.0
 11
71.024969
 21
24.422714
 31
0.0
  0
LINE
  5
30A
330
6B
100
AcDbEntity
  8
0
100
AcDbLine
 10
70.524969
 20
24.422714
 30
0.0
 11
75.524969
 21
24.422714
 31
0.0
  0
LINE
  5
30B
330
6B
100
AcDbEntity
  8
0
100
AcDbLine
 10
71.524969
 20
48.422714
 30
0.0
 11
71.524969
 21
49.422714
 31
0.0
  0
ARC
  5
30C
330
6B
100
AcDbEntity
  8
0
100
AcDbCircle
 10
70.524969
 20
48.67271399999999
 30
0.0
 40
1.25
100
AcDbArc
 50
36.869898
 51
90.0
  0
LINE
  5
30D
330
6B
100
AcDbEntity
  8
0
100
AcDbLine
 10
72.02496899999998
 20
48.422714
 30
0.0
 11
72.02496899999998
 21
49.422714
 31
0.0
  0
ARC
  5
30E
330
6B
100
AcDbEntity
  8
0
100
AcDbCircle
 10
73.024969
 20
48.67271399999999
 30
0.0
 40
1.25
100
AcDbArc
 50
36.869898
 51
143.130102
  0
LINE
  5
30F
330
6B
100
AcDbEntity
  8
0
100
AcDbLine
 10
74.024969
 20
48.422714
 30
0.0
 11
74.024969
 21
49.422714
 31
0.0
  0
ARC
  5
310
330
6B
100
AcDbEntity
  8
0
100
AcDbCircle
 10
75.524969
 20
48.67271399999999
 30
0.0
 40
1.25
100
AcDbArc
 50
90.0
 51
143.130102
  0
LINE
  5
311
330
6B
100
AcDbEntity
  8
0
100
AcDbLine
 10
70.024969
 20
49.422714
 30
0.0
 11
76.024969
 21
49.422714
 31
0.0
  0
LINE
  5
312
330
6B
100
AcDbEntity
  8
0
100
AcDbLine
 10
71.274969
 20
55.172714
 30
0.0
 11
74.774969
 21
55.172714
 31
0.0
  0
LINE
  5
313
330
6B
100
AcDbEntity
  8
0
100
AcDbLine
 10
75.524969
 20
54.422714
 30
0.0
 11
70.524969
 21
54.422714
 31
0.0
  0
LINE
  5
314
330
6B
100
AcDbEntity
  8
0
100
AcDbLine
 10
72.02496899999998
 20
56.672714
 30
0.0
 11
72.02496899999998
 21
58.67271399999999
 31
0.0
  0
LINE
  5
315
330
6B
100
AcDbEntity
  8
0
100
AcDbLine
 10
71.524969
 20
56.672714
 30
0.0
 11
71.524969
 21
58.67271399999999
 31
0.0
  0
LINE
  5
316
330
6B
100
AcDbEntity
  8
0
100
AcDbLine
 10
74.024969
 20
56.672714
 30
0.0
 11
74.024969
 21
58.67271399999999
 31
0.0
  0
LINE
  5
317
330
6B
100
AcDbEntity
  8
0
100
AcDbLine
 10
74.52496899999998
 20
56.672714
 30
0.0
 11
74.52496899999998
 21
58.67271399999999
 31
0.0
  0
LINE
  5
318
330
6B
100
AcDbEntity
  8
0
100
AcDbLine
 10
70.524969
 20
58.67271399999999
 30
0.0
 11
75.524969
 21
58.67271399999999
 31
0.0
  0
ARC
  5
319
330
6B
100
AcDbEntity
  8
0
100
AcDbCircle
 10
73.024969
 20
57.922714
 30
0.0
 40
1.25
100
AcDbArc
 50
36.869898
 51
143.130102
  0
ARC
  5
31A
330
6B
100
AcDbEntity
  8
0
100
AcDbCircle
 10
75.524969
 20
57.922714
 30
0.0
 40
1.25
100
AcDbArc
 50
109.89591
 51
143.130102
  0
ARC
  5
31B
330
6B
100
AcDbEntity
  8
0
100
AcDbCircle
 10
70.524969
 20
57.922714
 30
0.0
 40
1.25
100
AcDbArc
 50
36.869898
 51
70.10409
  0
LINE
  5
31C
330
6B
100
AcDbEntity
  8
0
100
AcDbLine
 10
74.52496899999998
 20
48.422714
 30
0.0
 11
74.52496899999998
 21
49.422714
 31
0.0
  0
LINE
  5
31D
330
6B
100
AcDbEntity
  8
0
100
AcDbLine
 10
66.524969
 20
40.940883
 30
0.0
 11
66.524969
 21
36.904545
 31
0.0
  0
LINE
  5
31E
330
6B
100
AcDbEntity
  8
0
100
AcDbLine
 10
75.524969
 20
24.422714
 30
0.0
 11
75.524969
 21
23.422714
 31
0.0
  0
CIRCLE
  5
31F
330
6B
100
AcDbEntity
  8
0
100
AcDbCircle
 10
-24.820906
 20
33.619238
 30
0.0
 40
0.75
  0
ARC
  5
320
330
6B
100
AcDbEntity
  8
0
100
AcDbCircle
 10
-35.427508
 20
33.619238
 30
0.0
 40
0.75
100
AcDbArc
 50
124.808171
 51
55.191829
  0
CIRCLE
  5
321
330
6B
100
AcDbEntity
  8
0
100
AcDbCircle
 10
-34.124207
 20
46.92253899999999
 30
0.0
 40
0.5
  0
ARC
  5
322
330
6B
100
AcDbEntity
  8
0
100
AcDbCircle
 10
-35.427508
 20
44.22584
 30
0.0
 40
2.0
100
AcDbArc
 50
44.999998
 51
136.203461
  0
ARC
  5
323
330
6B
100
AcDbEntity
  8
0
100
AcDbCircle
 10
-30.124207
 20
38.922539
 30
0.0
 40
7.0
100
AcDbArc
 50
87.119674
 51
107.184729
  0
ARC
  5
324
330
6B
100
AcDbEntity
  8
0
100
AcDbCircle
 10
-32.624207
 20
57.922539
 30
0.0
 40
1.25
100
AcDbArc
 50
36.869898
 51
70.10409
  0
LINE
  5
325
330
6B
100
AcDbEntity
  8
0
100
AcDbLine
 10
-32.624207
 20
58.672539
 30
0.0
 11
-29.771457
 21
58.672539
 31
0.0
  0
LINE
  5
326
330
6B
100
AcDbEntity
  8
0
100
AcDbLine
 10
-31.624207
 20
56.672539
 30
0.0
 11
-31.624207
 21
58.672539
 31
0.0
  0
LINE
  5
327
330
6B
100
AcDbEntity
  8
0
100
AcDbLine
 10
-31.124207
 20
56.672539
 30
0.0
 11
-31.124207
 21
58.672539
 31
0.0
  0
ARC
  5
328
330
6B
100
AcDbEntity
  8
0
100
AcDbCircle
 10
-30.124207
 20
48.672539
 30
0.0
 40
1.25
100
AcDbArc
 50
90.0
 51
143.130102
  0
LINE
  5
329
330
6B
100
AcDbEntity
  8
0
100
AcDbLine
 10
-33.124207
 20
49.422539
 30
0.0
 11
-30.124207
 21
49.422539
 31
0.0
  0
LINE
  5
32A
330
6B
100
AcDbEntity
  8
0
100
AcDbLine
 10
-31.124207
 20
48.422539
 30
0.0
 11
-31.124207
 21
49.422539
 31
0.0
  0
LINE
  5
32B
330
6B
100
AcDbEntity
  8
0
100
AcDbLine
 10
-31.624207
 20
48.422539
 30
0.0
 11
-31.624207
 21
49.422539
 31
0.0
  0
ARC
  5
32C
330
6B
100
AcDbEntity
  8
0
100
AcDbCircle
 10
-32.624207
 20
48.672539
 30
0.0
 40
1.25
100
AcDbArc
 50
36.869898
 51
90.0
  0
CIRCLE
  5
32D
330
6B
100
AcDbEntity
  8
0
100
AcDbCircle
 10
-24.820906
 20
44.22584
 30
0.0
 40
0.75
  0
LINE
  5
32E
330
6B
100
AcDbEntity
  8
0
100
AcDbLine
 10
-31.374207
 20
55.172539
 30
0.0
 11
-31.374207
 21
56.672539
 31
0.0
  0
CIRCLE
  5
32F
330
6B
100
AcDbEntity
  8
0
100
AcDbCircle
 10
-118.332101
 20
33.619238
 30
0.0
 40
0.75
  0
CIRCLE
  5
330
330
6B
100
AcDbEntity
  8
0
100
AcDbCircle
 10
-128.938703
 20
44.22584
 30
0.0
 40
0.75
  0
CIRCLE
  5
331
330
6B
100
AcDbEntity
  8
0
100
AcDbCircle
 10
-127.635402
 20
46.92253899999999
 30
0.0
 40
0.5
  0
CIRCLE
  5
332
330
6B
100
AcDbEntity
  8
0
100
AcDbCircle
 10
-128.938703
 20
33.619238
 30
0.0
 40
0.75
  0
LINE
  5
333
330
6B
100
AcDbEntity
  8
0
100
AcDbLine
 10
-121.135402
 20
56.672539
 30
0.0
 11
-126.135402
 21
56.672539
 31
0.0
  0
LINE
  5
334
330
6B
100
AcDbEntity
  8
0
100
AcDbLine
 10
-124.885402
 20
55.172539
 30
0.0
 11
-124.885402
 21
56.672539
 31
0.0
  0
LINE
  5
335
330
6B
100
AcDbEntity
  8
0
100
AcDbLine
 10
-122.385402
 20
55.172539
 30
0.0
 11
-122.385402
 21
56.672539
 31
0.0
  0
LINE
  5
336
330
6B
100
AcDbEntity
  8
0
100
AcDbLine
 10
-125.135402
 20
56.672539
 30
0.0
 11
-125.135402
 21
58.672539
 31
0.0
  0
LINE
  5
337
330
6B
100
AcDbEntity
  8
0
100
AcDbLine
 10
-124.635402
 20
56.672539
 30
0.0
 11
-124.635402
 21
58.672539
 31
0.0
  0
LINE
  5
338
330
6B
100
AcDbEntity
  8
0
100
AcDbLine
 10
-122.635402
 20
56.672539
 30
0.0
 11
-122.635402
 21
58.672539
 31
0.0
  0
LINE
  5
339
330
6B
100
AcDbEntity
  8
0
100
AcDbLine
 10
-122.135402
 20
56.672539
 30
0.0
 11
-122.135402
 21
58.672539
 31
0.0
  0
ARC
  5
33A
330
6B
100
AcDbEntity
  8
0
100
AcDbCircle
 10
-121.135402
 20
57.922539
 30
0.0
 40
1.25
100
AcDbArc
 50
109.89591
 51
143.130102
  0
ARC
  5
33B
330
6B
100
AcDbEntity
  8
0
100
AcDbCircle
 10
-123.635402
 20
57.922539
 30
0.0
 40
1.25
100
AcDbArc
 50
36.869898
 51
143.130102
  0
LINE
  5
33C
330
6B
100
AcDbEntity
  8
0
100
AcDbLine
 10
-126.135402
 20
58.672539
 30
0.0
 11
-121.135402
 21
58.672539
 31
0.0
  0
ARC
  5
33D
330
6B
100
AcDbEntity
  8
0
100
AcDbCircle
 10
-126.135402
 20
57.922539
 30
0.0
 40
1.25
100
AcDbArc
 50
36.869898
 51
70.10409
  0
ARC
  5
33E
330
6B
100
AcDbEntity
  8
0
100
AcDbCircle
 10
-123.635402
 20
48.672539
 30
0.0
 40
1.25
100
AcDbArc
 50
36.869898
 51
143.130102
  0
ARC
  5
33F
330
6B
100
AcDbEntity
  8
0
100
AcDbCircle
 10
-126.135402
 20
48.672539
 30
0.0
 40
1.25
100
AcDbArc
 50
36.869898
 51
90.0
  0
ARC
  5
340
330
6B
100
AcDbEntity
  8
0
100
AcDbCircle
 10
-121.135402
 20
48.672539
 30
0.0
 40
1.25
100
AcDbArc
 50
90.0
 51
143.130102
  0
LINE
  5
341
330
6B
100
AcDbEntity
  8
0
100
AcDbLine
 10
-122.135402
 20
48.422539
 30
0.0
 11
-122.135402
 21
49.422539
 31
0.0
  0
LINE
  5
342
330
6B
100
AcDbEntity
  8
0
100
AcDbLine
 10
-122.635402
 20
48.422539
 30
0.0
 11
-122.635402
 21
49.422539
 31
0.0
  0
LINE
  5
343
330
6B
100
AcDbEntity
  8
0
100
AcDbLine
 10
-124.635402
 20
48.422539
 30
0.0
 11
-124.635402
 21
49.422539
 31
0.0
  0
LINE
  5
344
330
6B
100
AcDbEntity
  8
0
100
AcDbLine
 10
-125.135402
 20
48.422539
 30
0.0
 11
-125.135402
 21
49.422539
 31
0.0
  0
LINE
  5
345
330
6B
100
AcDbEntity
  8
0
100
AcDbLine
 10
-126.635402
 20
49.422539
 30
0.0
 11
-120.635402
 21
49.422539
 31
0.0
  0
LINE
  5
346
330
6B
100
AcDbEntity
  8
0
100
AcDbLine
 10
-121.135402
 20
49.922539
 30
0.0
 11
-126.135402
 21
49.922539
 31
0.0
  0
CIRCLE
  5
347
330
6B
100
AcDbEntity
  8
0
100
AcDbCircle
 10
-118.332101
 20
44.22584
 30
0.0
 40
0.75
  0
LINE
  5
348
330
6B
100
AcDbEntity
  8
0
100
AcDbLine
 10
-122.635402
 20
60.17983100000001
 30
0.0
 11
-122.635402
 21
59.172539
 31
0.0
  0
LINE
  5
349
330
6B
100
AcDbEntity
  8
0
100
AcDbLine
 10
-26.624207
 20
27.422539
 30
0.0
 11
-26.624207
 21
35.00942
 31
0.0
  0
LINE
  5
34A
330
6B
100
AcDbEntity
  8
0
100
AcDbLine
 10
75.524969
 20
53.422714
 30
0.0
 11
70.524969
 21
53.422714
 31
0.0
  0
LINE
  5
351
330
6B
100
AcDbEntity
  8
0
 62
     3
100
AcDbLine
 10
-151.313071
 20
56.185995
 30
0.0
 11
-149.545304
 21
54.418228
 31
0.0
  0
ARC
  5
352
330
6B
100
AcDbEntity
  8
0
 62
     3
100
AcDbCircle
 10
-150.605965
 20
56.893102
 30
0.0
 40
1.0
100
AcDbArc
 50
45.0
 51
225.0
  0
LINE
  5
353
330
6B
100
AcDbEntity
  8
0
 62
     3
100
AcDbLine
 10
-148.131091
 20
55.83244200000001
 30
0.0
 11
-149.898858
 21
57.600209
 31
0.0
  0
LINE
  5
354
330
6B
100
AcDbEntity
  8
0
 62
     3
100
AcDbLine
 10
76.649969
 20
58.548001
 30
0.0
 11
117.149969
 21
58.548001
 31
0.0
  0
LINE
  5
355
330
6B
100
AcDbEntity
  8
0
 62
     3
100
AcDbLine
 10
72.274969
 20
63.67428100000001
 30
0.0
 11
72.274969
 21
59.172714
 31
0.0
  0
ARC
  5
356
330
6B
100
AcDbEntity
  8
0
 62
     3
100
AcDbCircle
 10
73.024969
 20
63.67428100000001
 30
0.0
 40
0.75
100
AcDbArc
 50
0.0
 51
180.0
  0
LINE
  5
357
330
6B
100
AcDbEntity
  8
0
 62
     3
100
AcDbLine
 10
73.774969
 20
63.67428100000001
 30
0.0
 11
73.774969
 21
59.172714
 31
0.0
  0
LINE
  5
358
330
6B
100
AcDbEntity
  8
0
 62
     3
100
AcDbLine
 10
-29.772457
 20
34.235039
 30
0.0
 11
-38.249207
 21
34.235039
 31
0.0
  0
LINE
  5
359
330
6B
100
AcDbEntity
  8
0
 62
     3
100
AcDbLine
 10
-43.61875999999997
 20
34.235039
 30
0.0
 11
-50.472832
 21
34.235039
 31
0.0
  0
LINE
  5
35A
330
6B
100
AcDbEntity
  8
0
 62
     3
100
AcDbLine
 10
-29.772457
 20
45.610039
 30
0.0
 11
-50.473332
 21
45.610039
 31
0.0
  0
LINE
  5
35B
330
6B
100
AcDbEntity
  8
0
 62
     3
100
AcDbLine
 10
-57.801876
 20
55.185995
 30
0.0
 11
-54.266342
 21
51.650461
 31
0.0
  0
ARC
  5
35C
330
6B
100
AcDbEntity
  8
0
 62
     3
100
AcDbCircle
 10
-57.09476999999999
 20
55.89310199999999
 30
0.0
 40
1.0
100
AcDbArc
 50
45.0
 51
225.0
  0
ARC
  5
35D
330
6B
100
AcDbEntity
  8
0
 62
     3
100
AcDbCircle
 10
-53.559236
 20
52.357568
 30
0.0
 40
1.0
100
AcDbArc
 50
225.0
 51
287.955536
  0
LINE
  5
35E
330
6B
100
AcDbEntity
  8
0
 62
     3
100
AcDbLine
 10
-53.25095699999999
 20
53.463503
 30
0.0
 11
-56.387663
 21
56.600209
 31
0.0
  0
LINE
  5
35F
330
6B
100
AcDbEntity
  8
0
 62
     3
100
AcDbLine
 10
-55.503779
 20
55.71632499999999
 30
0.0
 11
-56.917993
 21
54.302111
 31
0.0
  0
ARC
  5
360
330
6B
100
AcDbEntity
  8
0
 62
     3
100
AcDbCircle
 10
-31.624207
 20
60.727561
 30
0.0
 40
0.75
100
AcDbArc
 50
0.0
 51
37.486195
  0
LINE
  5
361
330
6B
100
AcDbEntity
  8
0
 62
     3
100
AcDbLine
 10
-29.906396
 20
62.16742199999998
 30
0.0
 11
-29.771457
 21
62.025742
 31
0.0
  0
LINE
  5
362
330
6B
100
AcDbEntity
  8
0
 62
     3
100
AcDbLine
 10
-41.90743799999999
 20
39.50194600000001
 30
0.0
 11
-46.183657
 21
26.341096
 31
0.0
  0
LINE
  5
363
330
6B
100
AcDbEntity
  8
0
 62
     3
100
AcDbLine
 10
-38.340976
 20
38.343132
 30
0.0
 11
-42.617195
 21
25.182283
 31
0.0
  0
ARC
  5
364
330
6B
100
AcDbEntity
  8
0
 62
     3
100
AcDbCircle
 10
162.149061
 20
17.032172
 30
0.0
 40
0.625
100
AcDbArc
 50
270.0
 51
0.0
  0
LINE
  5
365
330
6B
100
AcDbEntity
  8
0
 62
     3
100
AcDbLine
 10
161.149061
 20
15.782172
 30
0.0
 11
171.149061
 21
15.782172
 31
0.0
  0
LINE
  5
366
330
6B
100
AcDbEntity
  8
0
 62
     3
100
AcDbLine
 10
161.149061
 20
13.532172
 30
0.0
 11
161.149061
 21
15.782172
 31
0.0
  0
ARC
  5
367
330
6B
100
AcDbEntity
  8
0
 62
     3
100
AcDbCircle
 10
161.774061
 20
13.532172
 30
0.0
 40
0.625
100
AcDbArc
 50
180.0
 51
270.0
  0
LINE
  5
368
330
6B
100
AcDbEntity
  8
0
 62
     3
100
AcDbLine
 10
161.774061
 20
12.907172
 30
0.0
 11
170.524061
 21
12.907172
 31
0.0
  0
ARC
  5
369
330
6B
100
AcDbEntity
  8
0
 62
     3
100
AcDbCircle
 10
170.524061
 20
13.532172
 30
0.0
 40
0.625
100
AcDbArc
 50
270.0
 51
0.0
  0
LINE
  5
36A
330
6B
100
AcDbEntity
  8
0
 62
     3
100
AcDbLine
 10
171.149061
 20
13.532172
 30
0.0
 11
171.149061
 21
15.782172
 31
0.0
  0
ARC
  5
36B
330
6B
100
AcDbEntity
  8
0
 62
     3
100
AcDbCircle
 10
170.399061
 20
16.282172
 30
0.0
 40
0.125
100
AcDbArc
 50
0.0
 51
90.0
  0
ARC
  5
36C
330
6B
100
AcDbEntity
  8
0
 62
     3
100
AcDbCircle
 10
161.899061
 20
16.282172
 30
0.0
 40
0.125
100
AcDbArc
 50
90.0
 51
180.0
  0
ARC
  5
36D
330
6B
100
AcDbEntity
  8
0
 62
     3
100
AcDbCircle
 10
46.036786
 20
41.797726
 30
0.0
 40
0.25
100
AcDbArc
 50
90.0
 51
180.0
  0
ARC
  5
36E
330
6B
100
AcDbEntity
  8
0
 62
     3
100
AcDbCircle
 10
-147.070431
 20
53.35756800000001
 30
0.0
 40
1.0
100
AcDbArc
 50
225.0
 51
287.955536
  0
LINE
  5
36F
330
6B
100
AcDbEntity
  8
0
 62
     3
100
AcDbLine
 10
-148.131091
 20
55.83244200000001
 30
0.0
 11
-146.762152
 21
54.463503
 31
0.0
  0
LINE
  5
370
330
6B
100
AcDbEntity
  8
0
 62
     3
100
AcDbLine
 10
-147.777537
 20
52.650461
 30
0.0
 11
-149.545304
 21
54.418228
 31
0.0
  0
LINE
  5
371
330
6B
100
AcDbEntity
  8
0
 62
     3
100
AcDbLine
 10
-125.782652
 20
76.422539
 30
0.0
 11
-141.487152
 21
76.422539
 31
0.0
  0
LINE
  5
372
330
6B
100
AcDbEntity
  8
0
 62
     3
100
AcDbLine
 10
50.011786
 20
36.033602
 30
0.0
 11
50.011786
 21
75.035214
 31
0.0
  0
LINE
  5
373
330
6B
100
AcDbEntity
  8
0
 62
     3
100
AcDbLine
 10
52.786786
 20
36.033602
 30
0.0
 11
52.786786
 21
75.035214
 31
0.0
  0
LINE
  5
374
330
6B
100
AcDbEntity
  8
0
 62
     3
100
AcDbLine
 10
50.011786
 20
36.033589
 30
0.0
 11
50.011786
 21
9.960214
 31
0.0
  0
LINE
  5
375
330
6B
100
AcDbEntity
  8
0
 62
     3
100
AcDbLine
 10
52.786786
 20
9.960214
 30
0.0
 11
52.786786
 21
36.033589
 31
0.0
  0
LINE
  5
376
330
6B
100
AcDbEntity
  8
0
 62
     3
100
AcDbLine
 10
119.774969
 20
36.03387700000001
 30
0.0
 11
119.774969
 21
75.035214
 31
0.0
  0
LINE
  5
377
330
6B
100
AcDbEntity
  8
0
 62
     3
100
AcDbLine
 10
122.549969
 20
36.03387700000001
 30
0.0
 11
122.549969
 21
75.035214
 31
0.0
  0
LINE
  5
378
330
6B
100
AcDbEntity
  8
0
 62
     3
100
AcDbLine
 10
119.774969
 20
36.033864
 30
0.0
 11
119.774969
 21
9.960214
 31
0.0
  0
LINE
  5
379
330
6B
100
AcDbEntity
  8
0
 62
     3
100
AcDbLine
 10
122.549969
 20
9.960214
 30
0.0
 11
122.549969
 21
36.033864
 31
0.0
  0
LINE
  5
37A
330
6B
100
AcDbEntity
  8
0
 62
     3
100
AcDbLine
 10
76.649969
 20
40.797726
 30
0.0
 11
79.499723
 21
40.797726
 31
0.0
  0
LINE
  5
37B
330
6B
100
AcDbEntity
  8
0
 62
     3
100
AcDbLine
 10
76.649969
 20
37.047726
 30
0.0
 11
81.48227099999997
 21
37.047726
 31
0.0
  0
ARC
  5
37C
330
6B
100
AcDbEntity
  8
0
 62
     3
100
AcDbCircle
 10
-40.12420699999998
 20
38.922039
 30
0.0
 40
2.1875
100
AcDbArc
 50
328.997281
 51
192.994861
  0
LINE
  5
37D
330
6B
100
AcDbEntity
  8
0
 62
     3
100
AcDbLine
 10
-32.271457
 20
76.422539
 30
0.0
 11
-47.975957
 21
76.422539
 31
0.0
  0
LINE
  5
37E
330
6B
100
AcDbEntity
  8
0
 62
     3
100
AcDbLine
 10
45.78678599999999
 20
41.797726
 30
0.0
 11
45.78678599999999
 21
22.297726
 31
0.0
  0
LINE
  5
37F
330
6B
100
AcDbEntity
  8
0
 62
     3
100
AcDbLine
 10
48.28678599999999
 20
42.047726
 30
0.0
 11
47.03678599999999
 21
23.422726
 31
0.0
  0
LINE
  5
380
330
6B
100
AcDbEntity
  8
0
 62
     3
100
AcDbLine
 10
47.03678599999999
 20
22.297726
 30
0.0
 11
47.03678599999999
 21
23.422726
 31
0.0
  0
ARC
  5
381
330
6B
100
AcDbEntity
  8
0
 62
     3
100
AcDbCircle
 10
46.786786
 20
22.297726
 30
0.0
 40
0.25
100
AcDbArc
 50
270.0
 51
0.0
  0
LINE
  5
382
330
6B
100
AcDbEntity
  8
0
 62
     3
100
AcDbLine
 10
46.786786
 20
22.047726
 30
0.0
 11
46.036786
 21
22.047726
 31
0.0
  0
ARC
  5
383
330
6B
100
AcDbEntity
  8
0
 62
     3
100
AcDbCircle
 10
46.036786
 20
22.297726
 30
0.0
 40
0.25
100
AcDbArc
 50
180.0
 51
270.0
  0
LINE
  5
384
330
6B
100
AcDbEntity
  8
0
 62
     3
100
AcDbLine
 10
35.036786
 20
21.860226
 30
0.0
 11
35.036786
 21
24.735226
 31
0.0
  0
LINE
  5
385
330
6B
100
AcDbEntity
  8
0
 62
     3
100
AcDbLine
 10
46.036786
 20
42.047726
 30
0.0
 11
48.28678599999999
 21
42.047726
 31
0.0
  0
ARC
  5
386
330
6B
100
AcDbEntity
  8
0
 62
     3
100
AcDbCircle
 10
-40.12420699999998
 20
38.922539
 30
0.0
 40
8.125
100
AcDbArc
 50
61.39595999999999
 51
124.605998
  0
ARC
  5
387
330
6B
100
AcDbEntity
  8
0
 62
     3
100
AcDbCircle
 10
-40.12420699999998
 20
40.922539
 30
0.0
 40
8.125
100
AcDbArc
 50
269.868593
 51
298.60404
  0
ARC
  5
388
330
6B
100
AcDbEntity
  8
0
 62
     3
100
AcDbCircle
 10
-40.12420699999998
 20
40.922539
 30
0.0
 40
8.125
100
AcDbArc
 50
235.394002
 51
243.100399
  0
LINE
  5
389
330
6B
100
AcDbEntity
  8
0
 62
     3
100
AcDbLine
 10
44.911786
 20
24.610226
 30
0.0
 11
45.78678599999999
 21
24.297726
 31
0.0
  0
LINE
  5
38A
330
6B
100
AcDbEntity
  8
0
 62
     3
100
AcDbLine
 10
44.911786
 20
21.985226
 30
0.0
 11
45.78678599999999
 21
22.297726
 31
0.0
  0
LINE
  5
38B
330
6B
100
AcDbEntity
  8
0
 62
     3
100
AcDbLine
 10
44.53678599999999
 20
21.985226
 30
0.0
 11
44.911786
 21
21.985226
 31
0.0
  0
LINE
  5
38C
330
6B
100
AcDbEntity
  8
0
 62
     3
100
AcDbLine
 10
42.53678599999999
 20
22.110226
 30
0.0
 11
44.41178599999999
 21
22.297726
 31
0.0
  0
LINE
  5
38D
330
6B
100
AcDbEntity
  8
0
 62
     3
100
AcDbLine
 10
42.03678599999999
 20
21.547726
 30
0.0
 11
42.53678599999999
 21
22.110226
 31
0.0
  0
LINE
  5
38E
330
6B
100
AcDbEntity
  8
0
 62
     3
100
AcDbLine
 10
35.349286
 20
21.547726
 30
0.0
 11
42.03678599999999
 21
21.547726
 31
0.0
  0
ARC
  5
38F
330
6B
100
AcDbEntity
  8
0
 62
     3
100
AcDbCircle
 10
35.349286
 20
21.860226
 30
0.0
 40
0.3125
100
AcDbArc
 50
180.0
 51
270.0
  0
ARC
  5
390
330
6B
100
AcDbEntity
  8
0
 62
     3
100
AcDbCircle
 10
35.349286
 20
24.735226
 30
0.0
 40
0.3125
100
AcDbArc
 50
90.0
 51
180.0
  0
LINE
  5
391
330
6B
100
AcDbEntity
  8
0
 62
     3
100
AcDbLine
 10
35.349286
 20
25.047726
 30
0.0
 11
42.03678599999999
 21
25.047726
 31
0.0
  0
LINE
  5
392
330
6B
100
AcDbEntity
  8
0
 62
     3
100
AcDbLine
 10
42.03678599999999
 20
25.047726
 30
0.0
 11
42.53678599999999
 21
24.485226
 31
0.0
  0
LINE
  5
393
330
6B
100
AcDbEntity
  8
0
 62
     3
100
AcDbLine
 10
42.53678599999999
 20
24.485226
 30
0.0
 11
44.41178599999999
 21
24.297726
 31
0.0
  0
LINE
  5
394
330
6B
100
AcDbEntity
  8
0
 62
     3
100
AcDbLine
 10
44.41178599999999
 20
24.297726
 30
0.0
 11
44.53678599999999
 21
24.610226
 31
0.0
  0
LINE
  5
395
330
6B
100
AcDbEntity
  8
0
 62
     3
100
AcDbLine
 10
44.53678599999999
 20
24.610226
 30
0.0
 11
44.911786
 21
24.610226
 31
0.0
  0
ARC
  5
396
330
6B
100
AcDbEntity
  8
0
 62
     3
100
AcDbCircle
 10
-141.487152
 20
71.147539
 30
0.0
 40
5.275
100
AcDbArc
 50
90.0
 51
180.0
  0
ARC
  5
397
330
6B
100
AcDbEntity
  8
0
 62
     3
100
AcDbCircle
 10
-125.782652
 20
71.147539
 30
0.0
 40
5.275
100
AcDbArc
 50
0.0
 51
90.0
  0
ARC
  5
398
330
6B
100
AcDbEntity
  8
0
 62
     3
100
AcDbCircle
 10
-125.782652
 20
71.147539
 30
0.0
 40
2.5
100
AcDbArc
 50
0.0
 51
90.0
  0
LINE
  5
399
330
6B
100
AcDbEntity
  8
0
 62
     3
100
AcDbLine
 10
-125.782652
 20
73.647539
 30
0.0
 11
-141.487152
 21
73.647539
 31
0.0
  0
ARC
  5
39A
330
6B
100
AcDbEntity
  8
0
 62
     3
100
AcDbCircle
 10
-141.487152
 20
71.147539
 30
0.0
 40
2.5
100
AcDbArc
 50
90.0
 51
180.0
  0
LINE
  5
39B
330
6B
100
AcDbEntity
  8
0
 62
     3
100
AcDbLine
 10
-123.282652
 20
64.61006600000001
 30
0.0
 11
-123.282652
 21
71.147539
 31
0.0
  0
ARC
  5
39C
330
6B
100
AcDbEntity
  8
0
 62
     3
100
AcDbCircle
 10
-105.647402
 20
2.810038999999998
 30
0.0
 40
1.387499999999999
100
AcDbArc
 50
221.826234
 51
41.82623399999999
  0
ARC
  5
39D
330
6B
100
AcDbEntity
  8
0
 62
     3
100
AcDbCircle
 10
51.399286
 20
75.035214
 30
0.0
 40
1.387499999999999
100
AcDbArc
 50
0.0
 51
180.0
  0
ARC
  5
39E
330
6B
100
AcDbEntity
  8
0
 62
     3
100
AcDbCircle
 10
59.036786
 20
9.960214
 30
0.0
 40
6.25
100
AcDbArc
 50
180.0
 51
270.0
  0
ARC
  5
39F
330
6B
100
AcDbEntity
  8
0
 62
     3
100
AcDbCircle
 10
59.036786
 20
9.960214
 30
0.0
 40
9.025
100
AcDbArc
 50
180.0
 51
270.0
  0
LINE
  5
3A0
330
6B
100
AcDbEntity
  8
0
 62
     3
100
AcDbLine
 10
59.036786
 20
0.935214
 30
0.0
 11
113.524969
 21
0.935214
 31
0.0
  0
ARC
  5
3A1
330
6B
100
AcDbEntity
  8
0
 62
     3
100
AcDbCircle
 10
113.524969
 20
9.960214
 30
0.0
 40
6.25
100
AcDbArc
 50
270.0
 51
0.0
  0
ARC
  5
3A2
330
6B
100
AcDbEntity
  8
0
 62
     3
100
AcDbCircle
 10
113.524969
 20
9.960214
 30
0.0
 40
9.025
100
AcDbArc
 50
270.0
 51
0.0
  0
ARC
  5
3A3
330
6B
100
AcDbEntity
  8
0
 62
     3
100
AcDbCircle
 10
121.162469
 20
75.035214
 30
0.0
 40
1.387499999999999
100
AcDbArc
 50
0.0
 51
180.0
  0
LINE
  5
3A4
330
6B
100
AcDbEntity
  8
0
 62
     3
100
AcDbLine
 10
57.66570600000001
 20
40.922714
 30
0.0
 11
52.786786
 21
40.922714
 31
0.0
  0
LINE
  5
3A5
330
6B
100
AcDbEntity
  8
0
 62
     3
100
AcDbLine
 10
57.66570600000001
 20
36.922714
 30
0.0
 11
52.786786
 21
36.922714
 31
0.0
  0
LINE
  5
3A6
330
6B
100
AcDbEntity
  8
0
 62
     3
100
AcDbLine
 10
48.411786
 20
40.653964
 30
0.0
 11
50.011786
 21
40.653964
 31
0.0
  0
LINE
  5
3A7
330
6B
100
AcDbEntity
  8
0
 62
     3
100
AcDbLine
 10
48.411786
 20
37.191464
 30
0.0
 11
50.011786
 21
37.191464
 31
0.0
  0
ARC
  5
3A8
330
6B
100
AcDbEntity
  8
0
 62
     3
100
AcDbCircle
 10
-47.975957
 20
71.147539
 30
0.0
 40
5.275
100
AcDbArc
 50
90.0
 51
180.0
  0
ARC
  5
3A9
330
6B
100
AcDbEntity
  8
0
 62
     3
100
AcDbCircle
 10
-54.499582
 20
21.974814
 30
0.0
 40
1.25
100
AcDbArc
 50
318.173766
 51
0.0
  0
ARC
  5
3AA
330
6B
100
AcDbEntity
  8
0
 62
     3
100
AcDbCircle
 10
-40.12420699999998
 20
38.922539
 30
0.0
 40
30.0
100
AcDbArc
 50
115.942621
 51
231.6898919999999
  0
ARC
  5
3AB
330
6B
100
AcDbEntity
  8
0
 62
     3
100
AcDbCircle
 10
-40.12420699999998
 20
38.922539
 30
0.0
 40
30.0
100
AcDbArc
 50
69.816424
 51
110.180015
  0
ARC
  5
3AC
330
6B
100
AcDbEntity
  8
0
 62
     3
100
AcDbCircle
 10
-32.271457
 20
71.147539
 30
0.0
 40
5.275
100
AcDbArc
 50
0.0
 51
90.0
  0
ARC
  5
3AD
330
6B
100
AcDbEntity
  8
0
 62
     3
100
AcDbCircle
 10
-32.271457
 20
71.147539
 30
0.0
 40
2.5
100
AcDbArc
 50
0.0
 51
90.0
  0
LINE
  5
3AE
330
6B
100
AcDbEntity
  8
0
 62
     3
100
AcDbLine
 10
-32.271457
 20
73.647539
 30
0.0
 11
-47.975957
 21
73.647539
 31
0.0
  0
ARC
  5
3AF
330
6B
100
AcDbEntity
  8
0
 62
     3
100
AcDbCircle
 10
-47.975957
 20
71.147539
 30
0.0
 40
2.5
100
AcDbArc
 50
90.0
 51
180.0
  0
LINE
  5
3B0
330
6B
100
AcDbEntity
  8
0
 62
     3
100
AcDbLine
 10
-53.568118
 20
21.141221
 30
0.0
 11
-69.145131
 21
3.735326
 31
0.0
  0
LINE
  5
3B1
330
6B
100
AcDbEntity
  8
0
 62
     3
100
AcDbLine
 10
-51.50027
 20
19.290647
 30
0.0
 11
-67.077282
 21
1.884751999999999
 31
0.0
  0
ARC
  5
3B2
330
6B
100
AcDbEntity
  8
0
 62
     3
100
AcDbCircle
 10
-54.499582
 20
21.974814
 30
0.0
 40
4.025
100
AcDbArc
 50
318.173766
 51
0.0
  0
ARC
  5
3B3
330
6B
100
AcDbEntity
  8
0
 62
     3
100
AcDbCircle
 10
-40.12420699999998
 20
38.922539
 30
0.0
 40
30.0
100
AcDbArc
 50
308.311533
 51
64.04967899999999
  0
LINE
  5
3B4
330
6B
100
AcDbEntity
  8
0
 62
     3
100
AcDbLine
 10
-26.997457
 20
21.916199
 30
0.0
 11
-26.997457
 21
71.147539
 31
0.0
  0
LINE
  5
3B5
330
6B
100
AcDbEntity
  8
0
 62
     3
100
AcDbLine
 10
-29.772457
 20
71.147539
 30
0.0
 11
-29.772457
 21
21.869614
 31
0.0
  0
ARC
  5
3B6
330
6B
100
AcDbEntity
  8
0
 62
     3
100
AcDbCircle
 10
-25.748832
 20
21.974814
 30
0.0
 40
1.25
100
AcDbArc
 50
180.0
 51
221.826234
  0
LINE
  5
3B7
330
6B
100
AcDbEntity
  8
0
 62
     3
100
AcDbLine
 10
-26.680295
 20
21.141221
 30
0.0
 11
-11.103282
 21
3.735326
 31
0.0
  0
ARC
  5
3B8
330
6B
100
AcDbEntity
  8
0
 62
     3
100
AcDbCircle
 10
-25.748832
 20
21.974814
 30
0.0
 40
4.025
100
AcDbArc
 50
180.0
 51
221.826234
  0
LINE
  5
3B9
330
6B
100
AcDbEntity
  8
0
 62
     3
100
AcDbLine
 10
-28.748144
 20
19.290647
 30
0.0
 11
-13.171131
 21
1.884751999999999
 31
0.0
  0
ARC
  5
3BA
330
6B
100
AcDbEntity
  8
0
 62
     3
100
AcDbCircle
 10
-133.635402
 20
38.922539
 30
0.0
 40
30.0
100
AcDbArc
 50
69.812608
 51
110.185357
  0
ARC
  5
3BB
330
6B
100
AcDbEntity
  8
0
 62
     3
100
AcDbCircle
 10
-133.635402
 20
38.922539
 30
0.0
 40
30.0
100
AcDbArc
 50
115.948197
 51
231.6898919999999
  0
ARC
  5
3BC
330
6B
100
AcDbEntity
  8
0
 62
     3
100
AcDbCircle
 10
-133.635402
 20
38.922539
 30
0.0
 40
30.0
100
AcDbArc
 50
308.311533
 51
64.04967899999999
  0
LINE
  5
3BD
330
6B
100
AcDbEntity
  8
0
 62
     3
100
AcDbLine
 10
-120.507652
 20
64.00081999999999
 30
0.0
 11
-120.507652
 21
71.147539
 31
0.0
  0
LINE
  5
3BE
330
6B
100
AcDbEntity
  8
0
 62
     3
100
AcDbLine
 10
-146.762152
 20
21.916199
 30
0.0
 11
-146.762152
 21
71.147539
 31
0.0
  0
LINE
  5
3BF
330
6B
100
AcDbEntity
  8
0
 62
     3
100
AcDbLine
 10
-143.987152
 20
71.147539
 30
0.0
 11
-143.987152
 21
21.869614
 31
0.0
  0
ARC
  5
3C0
330
6B
100
AcDbEntity
  8
0
 62
     3
100
AcDbCircle
 10
-148.010777
 20
21.974814
 30
0.0
 40
4.025
100
AcDbArc
 50
318.173766
 51
0.0
  0
ARC
  5
3C1
330
6B
100
AcDbEntity
  8
0
 62
     3
100
AcDbCircle
 10
-148.010777
 20
21.974814
 30
0.0
 40
1.25
100
AcDbArc
 50
318.173766
 51
0.0
  0
LINE
  5
3C2
330
6B
100
AcDbEntity
  8
0
 62
     3
100
AcDbLine
 10
-147.079313
 20
21.141221
 30
0.0
 11
-162.656326
 21
3.735326
 31
0.0
  0
LINE
  5
3C3
330
6B
100
AcDbEntity
  8
0
 62
     3
100
AcDbLine
 10
-145.011465
 20
19.290647
 30
0.0
 11
-160.588477
 21
1.884751999999999
 31
0.0
  0
LINE
  5
3C4
330
6B
100
AcDbEntity
  8
0
 62
     3
100
AcDbLine
 10
-53.25095699999999
 20
24.968863
 30
0.0
 11
-53.25095699999999
 21
21.916199
 31
0.0
  0
LINE
  5
3C5
330
6B
100
AcDbEntity
  8
0
 62
     3
100
AcDbLine
 10
-53.25095699999999
 20
24.968863
 30
0.0
 11
-53.25095699999999
 21
71.147539
 31
0.0
  0
LINE
  5
3C6
330
6B
100
AcDbEntity
  8
0
 62
     3
100
AcDbLine
 10
-50.475957
 20
24.968863
 30
0.0
 11
-50.475957
 21
71.147539
 31
0.0
  0
LINE
  5
3C7
330
6B
100
AcDbEntity
  8
0
 62
     3
100
AcDbLine
 10
-50.475957
 20
24.968863
 30
0.0
 11
-50.475957
 21
21.869614
 31
0.0
  0
LINE
  5
3C8
330
6B
100
AcDbEntity
  8
0
 62
     3
100
AcDbLine
 10
-123.283652
 20
24.968863
 30
0.0
 11
-123.283652
 21
21.869614
 31
0.0
  0
ARC
  5
3C9
330
6B
100
AcDbEntity
  8
0
 62
     3
100
AcDbCircle
 10
-119.260027
 20
21.974814
 30
0.0
 40
4.025
100
AcDbArc
 50
180.0
 51
221.826234
  0
LINE
  5
3CA
330
6B
100
AcDbEntity
  8
0
 62
     3
100
AcDbLine
 10
-122.259339
 20
19.290647
 30
0.0
 11
-106.682326
 21
1.884751999999999
 31
0.0
  0
LINE
  5
3CB
330
6B
100
AcDbEntity
  8
0
 62
     3
100
AcDbLine
 10
-120.19149
 20
21.141221
 30
0.0
 11
-104.614477
 21
3.735326
 31
0.0
  0
ARC
  5
3CC
330
6B
100
AcDbEntity
  8
0
 62
     3
100
AcDbCircle
 10
-119.260027
 20
21.974814
 30
0.0
 40
1.25
100
AcDbArc
 50
180.0
 51
221.826234
  0
LINE
  5
3CD
330
6B
100
AcDbEntity
  8
0
 62
     3
100
AcDbLine
 10
-120.508652
 20
24.968863
 30
0.0
 11
-120.508652
 21
21.916199
 31
0.0
  0
ARC
  5
3CE
330
6B
100
AcDbEntity
  8
0
 62
     3
100
AcDbCircle
 10
-128.938703
 20
33.619238
 30
0.0
 40
2.0
100
AcDbArc
 50
135.0
 51
315.000002
  0
LINE
  5
3CF
330
6B
100
AcDbEntity
  8
0
 62
     3
100
AcDbLine
 10
-128.481998
 20
36.90437
 30
0.0
 11
-130.352916
 21
35.033452
 31
0.0
  0
LINE
  5
3D0
330
6B
100
AcDbEntity
  8
0
 62
     3
100
AcDbLine
 10
-127.135402
 20
32.59411200000001
 30
0.0
 11
-127.524489
 21
32.205025
 31
0.0
  0
LINE
  5
3D1
330
6B
100
AcDbEntity
  8
0
 62
     3
100
AcDbLine
 10
-119.635402
 20
27.422539
 30
0.0
 11
-119.635402
 21
25.922539
 31
0.0
  0
LINE
  5
3D2
330
6B
100
AcDbEntity
  8
0
 62
     3
100
AcDbLine
 10
-127.635402
 20
25.922539
 30
0.0
 11
-127.635402
 21
27.422539
 31
0.0
  0
LINE
  5
3D3
330
6B
100
AcDbEntity
  8
0
 62
     3
100
AcDbLine
 10
-127.635402
 20
27.422539
 30
0.0
 11
-119.635402
 21
27.422539
 31
0.0
  0
LINE
  5
3D4
330
6B
100
AcDbEntity
  8
0
 62
     3
100
AcDbLine
 10
-127.635402
 20
25.922539
 30
0.0
 11
-119.635402
 21
25.922539
 31
0.0
  0
LINE
  5
3D5
330
6B
100
AcDbEntity
  8
0
 62
     3
100
AcDbLine
 10
-127.135402
 20
27.422539
 30
0.0
 11
-127.135402
 21
35.00942
 31
0.0
  0
LINE
  5
3D6
330
6B
100
AcDbEntity
  8
0
 62
     3
100
AcDbLine
 10
-120.135402
 20
27.422539
 30
0.0
 11
-120.135402
 21
35.00942
 31
0.0
  0
ARC
  5
3D7
330
6B
100
AcDbEntity
  8
0
 62
     3
100
AcDbCircle
 10
-118.332101
 20
33.619238
 30
0.0
 40
2.0
100
AcDbArc
 50
224.9999980000001
 51
45.0
  0
LINE
  5
3D8
330
6B
100
AcDbEntity
  8
0
 62
     3
100
AcDbLine
 10
-118.788806
 20
36.90437
 30
0.0
 11
-116.917887
 21
35.033452
 31
0.0
  0
ARC
  5
3D9
330
6B
100
AcDbEntity
  8
0
 62
     3
100
AcDbCircle
 10
-123.635402
 20
38.922539
 30
0.0
 40
7.0
100
AcDbArc
 50
331.60155
 51
28.39845
  0
CIRCLE
  5
3DA
330
6B
100
AcDbEntity
  8
0
 62
     3
100
AcDbCircle
 10
-123.635402
 20
38.922539
 30
0.0
 40
5.25
  0
LINE
  5
3DB
330
6B
100
AcDbEntity
  8
0
 62
     3
100
AcDbLine
 10
-121.617233
 20
43.76913499999999
 30
0.0
 11
-119.746315
 21
45.640053
 31
0.0
  0
ARC
  5
3DC
330
6B
100
AcDbEntity
  8
0
 62
     3
100
AcDbCircle
 10
-118.332101
 20
44.22584
 30
0.0
 40
2.0
100
AcDbArc
 50
315.0
 51
135.000002
  0
LINE
  5
3DD
330
6B
100
AcDbEntity
  8
0
 62
     3
100
AcDbLine
 10
-118.788806
 20
40.94070799999999
 30
0.0
 11
-116.917887
 21
42.811626
 31
0.0
  0
LINE
  5
3DE
330
6B
100
AcDbEntity
  8
0
 62
     3
100
AcDbLine
 10
-125.653571
 20
43.76913499999999
 30
0.0
 11
-127.524489
 21
45.640053
 31
0.0
  0
ARC
  5
3DF
330
6B
100
AcDbEntity
  8
0
 62
     3
100
AcDbCircle
 10
-128.938703
 20
44.22584
 30
0.0
 40
2.0
100
AcDbArc
 50
44.999998
 51
225.0
  0
LINE
  5
3E0
330
6B
100
AcDbEntity
  8
0
 62
     3
100
AcDbLine
 10
-128.481998
 20
40.94070799999999
 30
0.0
 11
-130.352916
 21
42.811626
 31
0.0
  0
ARC
  5
3E1
330
6B
100
AcDbEntity
  8
0
 62
     3
100
AcDbCircle
 10
-123.635402
 20
38.922539
 30
0.0
 40
7.0
100
AcDbArc
 50
151.60155
 51
208.39845
  0
ARC
  5
3E2
330
6B
100
AcDbEntity
  8
0
 62
     3
100
AcDbCircle
 10
-123.635402
 20
38.922539
 30
0.0
 40
7.0
100
AcDbArc
 50
61.60155000000001
 51
118.39845
  0
LINE
  5
3E3
330
6B
100
AcDbEntity
  8
0
 62
     3
100
AcDbLine
 10
-121.385402
 20
47.422539
 30
0.0
 11
-121.385402
 21
45.551076
 31
0.0
  0
ARC
  5
3E4
330
6B
100
AcDbEntity
  8
0
 62
     3
100
AcDbCircle
 10
-122.385402
 20
47.422539
 30
0.0
 40
1.0
100
AcDbArc
 50
0.0
 51
90.0
  0
LINE
  5
3E5
330
6B
100
AcDbEntity
  8
0
 62
     3
100
AcDbLine
 10
-125.885402
 20
47.422539
 30
0.0
 11
-125.885402
 21
45.551076
 31
0.0
  0
ARC
  5
3E6
330
6B
100
AcDbEntity
  8
0
 62
     3
100
AcDbCircle
 10
-124.885402
 20
47.422539
 30
0.0
 40
1.0
100
AcDbArc
 50
90.0
 51
180.0
  0
ARC
  5
3E7
330
6B
100
AcDbEntity
  8
0
 62
     3
100
AcDbCircle
 10
-127.885402
 20
47.422539
 30
0.0
 40
1.0
100
AcDbArc
 50
90.0
 51
180.0
  0
LINE
  5
3E8
330
6B
100
AcDbEntity
  8
0
 62
     3
100
AcDbLine
 10
-127.885402
 20
48.422539
 30
0.0
 11
-120.635402
 21
48.422539
 31
0.0
  0
LINE
  5
3E9
330
6B
100
AcDbEntity
  8
0
 62
     3
100
AcDbLine
 10
-128.885402
 20
47.422539
 30
0.0
 11
-128.885402
 21
46.22512899999999
 31
0.0
  0
LINE
  5
3EA
330
6B
100
AcDbEntity
  8
0
 62
     3
100
AcDbLine
 10
-126.635402
 20
49.422539
 30
0.0
 11
-126.635402
 21
48.422539
 31
0.0
  0
LINE
  5
3EB
330
6B
100
AcDbEntity
  8
0
 62
     3
100
AcDbLine
 10
-126.135402
 20
49.922539
 30
0.0
 11
-126.635402
 21
49.422539
 31
0.0
  0
LINE
  5
3EC
330
6B
100
AcDbEntity
  8
0
 62
     3
100
AcDbLine
 10
-121.135402
 20
49.922539
 30
0.0
 11
-120.635402
 21
49.422539
 31
0.0
  0
LINE
  5
3ED
330
6B
100
AcDbEntity
  8
0
 62
     3
100
AcDbLine
 10
-120.635402
 20
49.422539
 30
0.0
 11
-120.635402
 21
48.422539
 31
0.0
  0
LINE
  5
3EE
330
6B
100
AcDbEntity
  8
0
 62
     3
100
AcDbLine
 10
-121.635402
 20
49.922539
 30
0.0
 11
-121.635402
 21
53.422539
 31
0.0
  0
LINE
  5
3EF
330
6B
100
AcDbEntity
  8
0
 62
     3
100
AcDbLine
 10
-121.135402
 20
53.422539
 30
0.0
 11
-126.135402
 21
53.422539
 31
0.0
  0
LINE
  5
3F0
330
6B
100
AcDbEntity
  8
0
 62
     3
100
AcDbLine
 10
-121.135402
 20
53.422539
 30
0.0
 11
-121.135402
 21
54.422539
 31
0.0
  0
LINE
  5
3F1
330
6B
100
AcDbEntity
  8
0
 62
     3
100
AcDbLine
 10
-121.135402
 20
54.422539
 30
0.0
 11
-126.135402
 21
54.422539
 31
0.0
  0
LINE
  5
3F2
330
6B
100
AcDbEntity
  8
0
 62
     3
100
AcDbLine
 10
-126.135402
 20
53.422539
 30
0.0
 11
-126.135402
 21
54.422539
 31
0.0
  0
LINE
  5
3F3
330
6B
100
AcDbEntity
  8
0
 62
     3
100
AcDbLine
 10
-125.635402
 20
49.922539
 30
0.0
 11
-125.635402
 21
53.422539
 31
0.0
  0
LINE
  5
3F4
330
6B
100
AcDbEntity
  8
0
 62
     3
100
AcDbLine
 10
-121.135402
 20
55.172539
 30
0.0
 11
-126.135402
 21
55.172539
 31
0.0
  0
LINE
  5
3F5
330
6B
100
AcDbEntity
  8
0
 62
     3
100
AcDbLine
 10
-121.885402
 20
54.422539
 30
0.0
 11
-121.885402
 21
55.172539
 31
0.0
  0
LINE
  5
3F6
330
6B
100
AcDbEntity
  8
0
 62
     3
100
AcDbLine
 10
-125.385402
 20
54.422539
 30
0.0
 11
-125.385402
 21
55.172539
 31
0.0
  0
LINE
  5
3F7
330
6B
100
AcDbEntity
  8
0
 62
     3
100
AcDbLine
 10
-121.135402
 20
55.172539
 30
0.0
 11
-121.135402
 21
58.672539
 31
0.0
  0
LINE
  5
3F8
330
6B
100
AcDbEntity
  8
0
 62
     3
100
AcDbLine
 10
-126.135402
 20
55.172539
 30
0.0
 11
-126.135402
 21
58.672539
 31
0.0
  0
LINE
  5
3F9
330
6B
100
AcDbEntity
  8
0
 62
     3
100
AcDbLine
 10
-121.635402
 20
59.172539
 30
0.0
 11
-121.135402
 21
58.672539
 31
0.0
  0
LINE
  5
3FA
330
6B
100
AcDbEntity
  8
0
 62
     3
100
AcDbLine
 10
-125.635402
 20
59.172539
 30
0.0
 11
-126.135402
 21
58.672539
 31
0.0
  0
LINE
  5
3FB
330
6B
100
AcDbEntity
  8
0
 62
     3
100
AcDbLine
 10
-121.635402
 20
59.172539
 30
0.0
 11
-125.635402
 21
59.172539
 31
0.0
  0
ARC
  5
3FC
330
6B
100
AcDbEntity
  8
0
 62
     3
100
AcDbCircle
 10
-155.135402
 20
39.922539
 30
0.0
 40
1.75
100
AcDbArc
 50
113.287732
 51
62.497067
  0
LINE
  5
3FD
330
6B
100
AcDbEntity
  8
0
 62
     3
100
AcDbLine
 10
75.524969
 20
56.672714
 30
0.0
 11
75.524969
 21
58.67271399999999
 31
0.0
  0
LINE
  5
3FE
330
6B
100
AcDbEntity
  8
0
 62
     3
100
AcDbLine
 10
70.524969
 20
56.672714
 30
0.0
 11
70.524969
 21
58.67271399999999
 31
0.0
  0
LINE
  5
3FF
330
6B
100
AcDbEntity
  8
0
 62
     3
100
AcDbLine
 10
74.774969
 20
54.422714
 30
0.0
 11
74.774969
 21
55.172714
 31
0.0
  0
LINE
  5
400
330
6B
100
AcDbEntity
  8
0
 62
     3
100
AcDbLine
 10
75.524969
 20
53.422714
 30
0.0
 11
75.524969
 21
54.422714
 31
0.0
  0
LINE
  5
401
330
6B
100
AcDbEntity
  8
0
 62
     3
100
AcDbLine
 10
70.524969
 20
53.422714
 30
0.0
 11
70.524969
 21
54.422714
 31
0.0
  0
LINE
  5
402
330
6B
100
AcDbEntity
  8
0
 62
     3
100
AcDbLine
 10
71.024969
 20
49.92271399999999
 30
0.0
 11
71.024969
 21
53.422714
 31
0.0
  0
LINE
  5
403
330
6B
100
AcDbEntity
  8
0
 62
     3
100
AcDbLine
 10
75.024969
 20
49.92271399999999
 30
0.0
 11
75.024969
 21
53.422714
 31
0.0
  0
LINE
  5
404
330
6B
100
AcDbEntity
  8
0
 62
     3
100
AcDbLine
 10
76.024969
 20
49.422714
 30
0.0
 11
76.024969
 21
48.422714
 31
0.0
  0
LINE
  5
405
330
6B
100
AcDbEntity
  8
0
 62
     3
100
AcDbLine
 10
70.024969
 20
49.422714
 30
0.0
 11
70.024969
 21
48.422714
 31
0.0
  0
LINE
  5
406
330
6B
100
AcDbEntity
  8
0
 62
     3
100
AcDbLine
 10
59.52496899999999
 20
33.185887
 30
0.0
 11
59.52496899999999
 21
27.422714
 31
0.0
  0
ARC
  5
407
330
6B
100
AcDbEntity
  8
0
 62
     3
100
AcDbCircle
 10
59.02496899999999
 20
33.185887
 30
0.0
 40
0.5
100
AcDbArc
 50
0.0
 51
82.400918
  0
ARC
  5
408
330
6B
100
AcDbEntity
  8
0
 62
     3
100
AcDbCircle
 10
59.22333
 20
34.672714
 30
0.0
 40
1.0
100
AcDbArc
 50
198.662925
 51
262.400918
  0
ARC
  5
409
330
6B
100
AcDbEntity
  8
0
 62
     3
100
AcDbCircle
 10
71.806219
 20
38.922714
 30
0.0
 40
14.28125
100
AcDbArc
 50
161.337075
 51
198.662925
  0
ARC
  5
40A
330
6B
100
AcDbEntity
  8
0
 62
     3
100
AcDbCircle
 10
59.22333
 20
43.172714
 30
0.0
 40
1.0
100
AcDbArc
 50
90.0
 51
161.337075
  0
LINE
  5
40B
330
6B
100
AcDbEntity
  8
0
 62
     3
100
AcDbLine
 10
59.22333
 20
44.17271399999999
 30
0.0
 11
66.024969
 21
44.17271399999999
 31
0.0
  0
LINE
  5
40C
330
6B
100
AcDbEntity
  8
0
 62
     3
100
AcDbLine
 10
66.024969
 20
41.44088299999999
 30
0.0
 11
66.024969
 21
45.726015
 31
0.0
  0
ARC
  5
40D
330
6B
100
AcDbEntity
  8
0
 62
     3
100
AcDbCircle
 10
66.524969
 20
45.726015
 30
0.0
 40
0.5
100
AcDbArc
 50
90.0
 51
180.0
  0
LINE
  5
40E
330
6B
100
AcDbEntity
  8
0
 62
     3
100
AcDbLine
 10
68.524969
 20
46.226015
 30
0.0
 11
66.524969
 21
46.226015
 31
0.0
  0
ARC
  5
40F
330
6B
100
AcDbEntity
  8
0
 62
     3
100
AcDbCircle
 10
68.524969
 20
45.726015
 30
0.0
 40
0.5
100
AcDbArc
 50
0.0
 51
90.0
  0
LINE
  5
410
330
6B
100
AcDbEntity
  8
0
 62
     3
100
AcDbLine
 10
75.524969
 20
45.922714
 30
0.0
 11
69.024969
 21
45.922714
 31
0.0
  0
LINE
  5
411
330
6B
100
AcDbEntity
  8
0
 62
     3
100
AcDbLine
 10
69.52496899999998
 20
47.92271399999999
 30
0.0
 11
69.52496899999998
 21
45.922714
 31
0.0
  0
ARC
  5
412
330
6B
100
AcDbEntity
  8
0
 62
     3
100
AcDbCircle
 10
70.024969
 20
47.92271399999999
 30
0.0
 40
0.5
100
AcDbArc
 50
90.0
 51
180.0
  0
LINE
  5
413
330
6B
100
AcDbEntity
  8
0
 62
     3
100
AcDbLine
 10
70.024969
 20
48.422714
 30
0.0
 11
76.024969
 21
48.422714
 31
0.0
  0
ARC
  5
414
330
6B
100
AcDbEntity
  8
0
 62
     3
100
AcDbCircle
 10
76.024969
 20
47.92271399999999
 30
0.0
 40
0.5
100
AcDbArc
 50
0.0
 51
90.0
  0
LINE
  5
415
330
6B
100
AcDbEntity
  8
0
 62
     3
100
AcDbLine
 10
71.024969
 20
31.422714
 30
0.0
 11
71.024969
 21
29.922714
 31
0.0
  0
ARC
  5
416
330
6B
100
AcDbEntity
  8
0
 62
     3
100
AcDbCircle
 10
70.524969
 20
31.422714
 30
0.0
 40
0.5
100
AcDbArc
 50
0.0
 51
90.0
  0
LINE
  5
417
330
6B
100
AcDbEntity
  8
0
 62
     3
100
AcDbLine
 10
70.524969
 20
31.922714
 30
0.0
 11
69.024969
 21
31.922714
 31
0.0
  0
ARC
  5
418
330
6B
100
AcDbEntity
  8
0
 62
     3
100
AcDbCircle
 10
68.524969
 20
32.119413
 30
0.0
 40
0.5
100
AcDbArc
 50
270.0
 51
0.0
  0
LINE
  5
419
330
6B
100
AcDbEntity
  8
0
 62
     3
100
AcDbLine
 10
68.524969
 20
31.619413
 30
0.0
 11
66.524969
 21
31.619413
 31
0.0
  0
ARC
  5
41A
330
6B
100
AcDbEntity
  8
0
 62
     3
100
AcDbCircle
 10
66.524969
 20
32.119413
 30
0.0
 40
0.5
100
AcDbArc
 50
180.0
 51
270.0
  0
LINE
  5
41B
330
6B
100
AcDbEntity
  8
0
 62
     3
100
AcDbLine
 10
66.524969
 20
27.422714
 30
0.0
 11
66.524969
 21
31.619413
 31
0.0
  0
LINE
  5
41C
330
6B
100
AcDbEntity
  8
0
 62
     3
100
AcDbLine
 10
67.02496899999998
 20
27.422714
 30
0.0
 11
59.02496899999999
 21
27.422714
 31
0.0
  0
LINE
  5
41D
330
6B
100
AcDbEntity
  8
0
 62
     3
100
AcDbLine
 10
66.024969
 20
36.404545
 30
0.0
 11
66.024969
 21
32.119413
 31
0.0
  0
LINE
  5
41E
330
6B
100
AcDbEntity
  8
0
 62
     3
100
AcDbLine
 10
66.524969
 20
36.904545
 30
0.0
 11
67.02496899999998
 21
36.904545
 31
0.0
  0
ARC
  5
41F
330
6B
100
AcDbEntity
  8
0
 62
     3
100
AcDbCircle
 10
66.524969
 20
36.404545
 30
0.0
 40
0.5
100
AcDbArc
 50
90.0
 51
180.0
  0
ARC
  5
420
330
6B
100
AcDbEntity
  8
0
 62
     3
100
AcDbCircle
 10
66.524969
 20
41.44088299999999
 30
0.0
 40
0.5
100
AcDbArc
 50
180.0
 51
270.0
  0
LINE
  5
421
330
6B
100
AcDbEntity
  8
0
 62
     3
100
AcDbLine
 10
66.524969
 20
40.940883
 30
0.0
 11
67.02496899999998
 21
40.940883
 31
0.0
  0
LINE
  5
422
330
6B
100
AcDbEntity
  8
0
 62
     3
100
AcDbLine
 10
71.024969
 20
59.172714
 30
0.0
 11
75.024969
 21
59.172714
 31
0.0
  0
LINE
  5
423
330
6B
100
AcDbEntity
  8
0
 62
     3
100
AcDbLine
 10
71.024969
 20
59.172714
 30
0.0
 11
70.524969
 21
58.67271399999999
 31
0.0
  0
LINE
  5
424
330
6B
100
AcDbEntity
  8
0
 62
     3
100
AcDbLine
 10
75.024969
 20
59.172714
 30
0.0
 11
75.524969
 21
58.67271399999999
 31
0.0
  0
LINE
  5
425
330
6B
100
AcDbEntity
  8
0
 62
     3
100
AcDbLine
 10
75.524969
 20
56.672714
 30
0.0
 11
70.524969
 21
56.672714
 31
0.0
  0
LINE
  5
426
330
6B
100
AcDbEntity
  8
0
 62
     3
100
AcDbLine
 10
71.774969
 20
56.672714
 30
0.0
 11
71.774969
 21
55.172714
 31
0.0
  0
LINE
  5
427
330
6B
100
AcDbEntity
  8
0
 62
     3
100
AcDbLine
 10
74.274969
 20
56.672714
 30
0.0
 11
74.274969
 21
55.172714
 31
0.0
  0
LINE
  5
428
330
6B
100
AcDbEntity
  8
0
 62
     3
100
AcDbLine
 10
71.274969
 20
54.422714
 30
0.0
 11
71.274969
 21
55.172714
 31
0.0
  0
LINE
  5
429
330
6B
100
AcDbEntity
  8
0
 62
     3
100
AcDbLine
 10
75.524969
 20
49.92271399999999
 30
0.0
 11
70.524969
 21
49.92271399999999
 31
0.0
  0
LINE
  5
42A
330
6B
100
AcDbEntity
  8
0
 62
     3
100
AcDbLine
 10
70.524969
 20
49.92271399999999
 30
0.0
 11
70.024969
 21
49.422714
 31
0.0
  0
LINE
  5
42B
330
6B
100
AcDbEntity
  8
0
 62
     3
100
AcDbLine
 10
75.524969
 20
49.92271399999999
 30
0.0
 11
76.024969
 21
49.422714
 31
0.0
  0
ARC
  5
42C
330
6B
100
AcDbEntity
  8
0
 62
     3
100
AcDbCircle
 10
-35.427508
 20
33.619238
 30
0.0
 40
2.0
100
AcDbArc
 50
162.067254
 51
315.000002
  0
LINE
  5
42D
330
6B
100
AcDbEntity
  8
0
 62
     3
100
AcDbLine
 10
-33.624207
 20
32.59411200000001
 30
0.0
 11
-34.013294
 21
32.205025
 31
0.0
  0
LINE
  5
42E
330
6B
100
AcDbEntity
  8
0
 62
     3
100
AcDbLine
 10
-34.124207
 20
25.922539
 30
0.0
 11
-34.124207
 21
27.422539
 31
0.0
  0
LINE
  5
42F
330
6B
100
AcDbEntity
  8
0
 62
     3
100
AcDbLine
 10
-33.624207
 20
27.422539
 30
0.0
 11
-33.624207
 21
34.235039
 31
0.0
  0
LINE
  5
430
330
6B
100
AcDbEntity
  8
0
 62
     3
100
AcDbLine
 10
-26.624207
 20
32.59411200000001
 30
0.0
 11
-26.23512
 21
32.205025
 31
0.0
  0
LINE
  5
431
330
6B
100
AcDbEntity
  8
0
 62
     3
100
AcDbLine
 10
-25.277611
 20
36.90437
 30
0.0
 11
-23.406692
 21
35.033452
 31
0.0
  0
LINE
  5
432
330
6B
100
AcDbEntity
  8
0
 62
     3
100
AcDbLine
 10
-32.374207
 20
47.422539
 30
0.0
 11
-32.374207
 21
45.551076
 31
0.0
  0
ARC
  5
433
330
6B
100
AcDbEntity
  8
0
 62
     3
100
AcDbCircle
 10
-31.374207
 20
47.422539
 30
0.0
 40
1.0
100
AcDbArc
 50
90.0
 51
180.0
  0
ARC
  5
434
330
6B
100
AcDbEntity
  8
0
 62
     3
100
AcDbCircle
 10
-34.374207
 20
47.422539
 30
0.0
 40
1.0
100
AcDbArc
 50
90.0
 51
180.0
  0
LINE
  5
435
330
6B
100
AcDbEntity
  8
0
 62
     3
100
AcDbLine
 10
-34.374207
 20
48.422539
 30
0.0
 11
-30.124207
 21
48.422539
 31
0.0
  0
LINE
  5
436
330
6B
100
AcDbEntity
  8
0
 62
     3
100
AcDbLine
 10
-35.374207
 20
47.422539
 30
0.0
 11
-35.374207
 21
46.22512899999999
 31
0.0
  0
LINE
  5
437
330
6B
100
AcDbEntity
  8
0
 62
     3
100
AcDbLine
 10
-33.124207
 20
49.422539
 30
0.0
 11
-33.124207
 21
48.422539
 31
0.0
  0
LINE
  5
438
330
6B
100
AcDbEntity
  8
0
 62
     3
100
AcDbLine
 10
-32.624207
 20
49.922539
 30
0.0
 11
-33.124207
 21
49.422539
 31
0.0
  0
LINE
  5
439
330
6B
100
AcDbEntity
  8
0
 62
     3
100
AcDbLine
 10
-30.124207
 20
53.422539
 30
0.0
 11
-32.624207
 21
53.422539
 31
0.0
  0
LINE
  5
43A
330
6B
100
AcDbEntity
  8
0
 62
     3
100
AcDbLine
 10
-29.771457
 20
54.422539
 30
0.0
 11
-32.624207
 21
54.422539
 31
0.0
  0
LINE
  5
43B
330
6B
100
AcDbEntity
  8
0
 62
     3
100
AcDbLine
 10
-32.624207
 20
53.422539
 30
0.0
 11
-32.624207
 21
54.422539
 31
0.0
  0
LINE
  5
43C
330
6B
100
AcDbEntity
  8
0
 62
     3
100
AcDbLine
 10
-32.124207
 20
49.922539
 30
0.0
 11
-32.124207
 21
53.422539
 31
0.0
  0
LINE
  5
43D
330
6B
100
AcDbEntity
  8
0
 62
     3
100
AcDbLine
 10
-29.771457
 20
55.172539
 30
0.0
 11
-32.624207
 21
55.172539
 31
0.0
  0
LINE
  5
43E
330
6B
100
AcDbEntity
  8
0
 62
     3
100
AcDbLine
 10
-31.874207
 20
54.422539
 30
0.0
 11
-31.874207
 21
55.172539
 31
0.0
  0
LINE
  5
43F
330
6B
100
AcDbEntity
  8
0
 62
     3
100
AcDbLine
 10
-29.771457
 20
56.672539
 30
0.0
 11
-32.624207
 21
56.672539
 31
0.0
  0
LINE
  5
440
330
6B
100
AcDbEntity
  8
0
 62
     3
100
AcDbLine
 10
-32.624207
 20
55.172539
 30
0.0
 11
-32.624207
 21
58.672539
 31
0.0
  0
LINE
  5
441
330
6B
100
AcDbEntity
  8
0
 62
     3
100
AcDbLine
 10
-32.124207
 20
59.172539
 30
0.0
 11
-32.624207
 21
58.672539
 31
0.0
  0
LINE
  5
442
330
6B
100
AcDbEntity
  8
0
 62
     3
100
AcDbLine
 10
-29.771457
 20
59.172539
 30
0.0
 11
-32.124207
 21
59.172539
 31
0.0
  0
ARC
  5
443
330
6B
100
AcDbEntity
  8
0
 62
     3
100
AcDbCircle
 10
-61.624207
 20
38.922539
 30
0.0
 40
1.75
100
AcDbArc
 50
113.287732
 51
62.497067
  0
ARC
  5
444
330
6B
100
AcDbEntity
  8
0
 62
     3
100
AcDbCircle
 10
-50.12420699999999
 20
38.922539
 30
0.0
 40
7.0
100
AcDbArc
 50
116.530783
 51
118.39845
  0
ARC
  5
445
330
6B
100
AcDbEntity
  8
0
 62
     3
100
AcDbCircle
 10
-24.820906
 20
33.619238
 30
0.0
 40
2.0
100
AcDbArc
 50
315.0
 51
45.0
  0
ARC
  5
446
330
6B
100
AcDbEntity
  8
0
 62
     3
100
AcDbCircle
 10
-24.820906
 20
33.619238
 30
0.0
 40
2.0
100
AcDbArc
 50
224.9999980000001
 51
315.0
  0
ARC
  5
447
330
6B
100
AcDbEntity
  8
0
 62
     3
100
AcDbCircle
 10
-30.124207
 20
38.922539
 30
0.0
 40
5.25
100
AcDbArc
 50
306.553379
 51
53.44662099999999
  0
LINE
  5
448
330
6B
100
AcDbEntity
  8
0
 62
     3
100
AcDbLine
 10
-26.997457
 20
44.877716
 30
0.0
 11
-26.23512
 21
45.640053
 31
0.0
  0
ARC
  5
449
330
6B
100
AcDbEntity
  8
0
 62
     3
100
AcDbCircle
 10
-24.820906
 20
44.22584
 30
0.0
 40
2.0
100
AcDbArc
 50
315.0
 51
135.000002
  0
ARC
  5
44A
330
6B
100
AcDbEntity
  8
0
 62
     3
100
AcDbCircle
 10
-30.124207
 20
38.922539
 30
0.0
 40
7.0
100
AcDbArc
 50
331.60155
 51
28.39845
  0
LINE
  5
44B
330
6B
100
AcDbEntity
  8
0
 62
     3
100
AcDbLine
 10
-25.277611
 20
40.94070799999999
 30
0.0
 11
-23.406692
 21
42.811626
 31
0.0
  0
ARC
  5
44C
330
6B
100
AcDbEntity
  8
0
 62
     3
100
AcDbCircle
 10
-30.124207
 20
38.922539
 30
0.0
 40
5.25
100
AcDbArc
 50
243.234499
 51
273.841695
  0
LINE
  5
44D
330
6B
100
AcDbEntity
  8
0
 62
     3
100
AcDbLine
 10
-34.124207
 20
27.422539
 30
0.0
 11
-29.772457
 21
27.422539
 31
0.0
  0
LINE
  5
44E
330
6B
100
AcDbEntity
  8
0
 62
     3
100
AcDbLine
 10
-26.997457
 20
27.422539
 30
0.0
 11
-26.124207
 21
27.422539
 31
0.0
  0
LINE
  5
44F
330
6B
100
AcDbEntity
  8
0
 62
     3
100
AcDbLine
 10
-26.124207
 20
27.422539
 30
0.0
 11
-26.124207
 21
25.922539
 31
0.0
  0
LINE
  5
450
330
6B
100
AcDbEntity
  8
0
 62
     3
100
AcDbLine
 10
-34.124207
 20
25.922539
 30
0.0
 11
-29.772457
 21
25.922539
 31
0.0
  0
LINE
  5
451
330
6B
100
AcDbEntity
  8
0
 62
     3
100
AcDbLine
 10
-26.997457
 20
25.922539
 30
0.0
 11
-26.124207
 21
25.922539
 31
0.0
  0
LINE
  5
452
330
6B
100
AcDbEntity
  8
0
 62
     3
100
AcDbLine
 10
-27.624207
 20
18.034749
 30
0.0
 11
-27.624207
 21
17.922539
 31
0.0
  0
LINE
  5
453
330
6B
100
AcDbEntity
  8
0
 62
     3
100
AcDbLine
 10
-52.62420699999999
 20
18.034749
 30
0.0
 11
-52.62420699999999
 21
17.922539
 31
0.0
  0
LINE
  5
454
330
6B
100
AcDbEntity
  8
0
 62
     3
100
AcDbLine
 10
70.524969
 20
23.422714
 30
0.0
 11
75.524969
 21
23.422714
 31
0.0
  0
LINE
  5
455
330
6B
100
AcDbEntity
  8
0
 62
     3
100
AcDbLine
 10
70.524969
 20
24.422714
 30
0.0
 11
70.524969
 21
23.422714
 31
0.0
  0
LINE
  5
456
330
6B
100
AcDbEntity
  8
0
 62
     3
100
AcDbLine
 10
67.02496899999998
 20
27.422714
 30
0.0
 11
67.02496899999998
 21
25.922714
 31
0.0
  0
LINE
  5
457
330
6B
100
AcDbEntity
  8
0
 62
     3
100
AcDbLine
 10
59.02496899999999
 20
25.922714
 30
0.0
 11
59.02496899999999
 21
27.422714
 31
0.0
  0
LINE
  5
458
330
6B
100
AcDbEntity
  8
0
 62
     3
100
AcDbLine
 10
67.02496899999998
 20
25.922714
 30
0.0
 11
59.02496899999999
 21
25.922714
 31
0.0
  0
LINE
  5
46A
330
6B
100
AcDbEntity
  8
0
 62
     3
100
AcDbLine
 10
-118.385402
 20
47.422539
 30
0.0
 11
-118.385402
 21
46.22512899999999
 31
0.0
  0
ARC
  5
46B
330
6B
100
AcDbEntity
  8
0
 62
     3
100
AcDbCircle
 10
-119.385402
 20
47.422539
 30
0.0
 40
1.0
100
AcDbArc
 50
0.0
 51
90.0
  0
LINE
  5
46C
330
6B
100
AcDbEntity
  8
0
100
AcDbLine
 10
45.78678599999999
 20
35.797726
 30
0.0
 11
47.86732299999999
 21
35.797726
 31
0.0
  0
CIRCLE
  5
46E
330
6B
100
AcDbEntity
  8
0
100
AcDbCircle
 10
116.187878
 20
16.425365
 30
0.0
 40
0.994716
  0
CIRCLE
  5
46F
330
6B
100
AcDbEntity
  8
0
100
AcDbCircle
 10
114.187878
 20
16.425365
 30
0.0
 40
0.994716
  0
CIRCLE
  5
470
330
6B
100
AcDbEntity
  8
0
100
AcDbCircle
 10
112.187878
 20
16.425365
 30
0.0
 40
0.994716
  0
CIRCLE
  5
471
330
6B
100
AcDbEntity
  8
0
100
AcDbCircle
 10
110.187878
 20
16.425365
 30
0.0
 40
0.994716
  0
CIRCLE
  5
472
330
6B
100
AcDbEntity
  8
0
100
AcDbCircle
 10
108.187878
 20
16.425365
 30
0.0
 40
0.994716
  0
CIRCLE
  5
473
330
6B
100
AcDbEntity
  8
0
100
AcDbCircle
 10
106.187878
 20
16.425365
 30
0.0
 40
0.994716
  0
CIRCLE
  5
474
330
6B
100
AcDbEntity
  8
0
100
AcDbCircle
 10
104.187878
 20
16.425365
 30
0.0
 40
0.994716
  0
CIRCLE
  5
475
330
6B
100
AcDbEntity
  8
0
100
AcDbCircle
 10
100.187878
 20
16.425365
 30
0.0
 40
0.994716
  0
CIRCLE
  5
476
330
6B
100
AcDbEntity
  8
0
100
AcDbCircle
 10
98.187878
 20
16.425365
 30
0.0
 40
0.994716
  0
CIRCLE
  5
477
330
6B
100
AcDbEntity
  8
0
100
AcDbCircle
 10
96.18787799999999
 20
16.425365
 30
0.0
 40
0.994716
  0
CIRCLE
  5
478
330
6B
100
AcDbEntity
  8
0
100
AcDbCircle
 10
94.187878
 20
16.425365
 30
0.0
 40
0.994716
  0
CIRCLE
  5
479
330
6B
100
AcDbEntity
  8
0
100
AcDbCircle
 10
92.18787799999999
 20
16.425365
 30
0.0
 40
0.994716
  0
CIRCLE
  5
47A
330
6B
100
AcDbEntity
  8
0
100
AcDbCircle
 10
90.187878
 20
16.425365
 30
0.0
 40
0.994716
  0
CIRCLE
  5
47B
330
6B
100
AcDbEntity
  8
0
100
AcDbCircle
 10
88.187878
 20
16.425365
 30
0.0
 40
0.994716
  0
CIRCLE
  5
47C
330
6B
100
AcDbEntity
  8
0
100
AcDbCircle
 10
86.18787799999998
 20
16.425365
 30
0.0
 40
0.994716
  0
CIRCLE
  5
47D
330
6B
100
AcDbEntity
  8
0
100
AcDbCircle
 10
84.187878
 20
16.425365
 30
0.0
 40
0.994716
  0
CIRCLE
  5
47E
330
6B
100
AcDbEntity
  8
0
100
AcDbCircle
 10
78.18787799999999
 20
16.425365
 30
0.0
 40
0.994716
  0
CIRCLE
  5
47F
330
6B
100
AcDbEntity
  8
0
100
AcDbCircle
 10
80.187878
 20
16.425365
 30
0.0
 40
0.994716
  0
CIRCLE
  5
480
330
6B
100
AcDbEntity
  8
0
100
AcDbCircle
 10
82.18787799999999
 20
16.425365
 30
0.0
 40
0.994716
  0
CIRCLE
  5
481
330
6B
100
AcDbEntity
  8
0
100
AcDbCircle
 10
102.187878
 20
16.425365
 30
0.0
 40
0.994716
  0
CIRCLE
  5
482
330
6B
100
AcDbEntity
  8
0
100
AcDbCircle
 10
116.187878
 20
61.420638
 30
0.0
 40
0.994716
  0
CIRCLE
  5
483
330
6B
100
AcDbEntity
  8
0
100
AcDbCircle
 10
114.187878
 20
61.420638
 30
0.0
 40
0.994716
  0
CIRCLE
  5
484
330
6B
100
AcDbEntity
  8
0
100
AcDbCircle
 10
112.187878
 20
61.420638
 30
0.0
 40
0.994716
  0
CIRCLE
  5
485
330
6B
100
AcDbEntity
  8
0
100
AcDbCircle
 10
110.187878
 20
61.420638
 30
0.0
 40
0.994716
  0
CIRCLE
  5
486
330
6B
100
AcDbEntity
  8
0
100
AcDbCircle
 10
108.187878
 20
61.420638
 30
0.0
 40
0.994716
  0
CIRCLE
  5
487
330
6B
100
AcDbEntity
  8
0
100
AcDbCircle
 10
106.187878
 20
61.420638
 30
0.0
 40
0.994716
  0
CIRCLE
  5
488
330
6B
100
AcDbEntity
  8
0
100
AcDbCircle
 10
104.187878
 20
61.420638
 30
0.0
 40
0.994716
  0
CIRCLE
  5
489
330
6B
100
AcDbEntity
  8
0
100
AcDbCircle
 10
102.187878
 20
61.420638
 30
0.0
 40
0.994716
  0
CIRCLE
  5
48A
330
6B
100
AcDbEntity
  8
0
100
AcDbCircle
 10
100.187878
 20
61.420638
 30
0.0
 40
0.994716
  0
CIRCLE
  5
48B
330
6B
100
AcDbEntity
  8
0
100
AcDbCircle
 10
98.187878
 20
61.420638
 30
0.0
 40
0.994716
  0
CIRCLE
  5
48C
330
6B
100
AcDbEntity
  8
0
100
AcDbCircle
 10
96.18787799999999
 20
61.420638
 30
0.0
 40
0.994716
  0
CIRCLE
  5
48D
330
6B
100
AcDbEntity
  8
0
100
AcDbCircle
 10
94.187878
 20
61.420638
 30
0.0
 40
0.994716
  0
CIRCLE
  5
48E
330
6B
100
AcDbEntity
  8
0
100
AcDbCircle
 10
92.18787799999999
 20
61.420638
 30
0.0
 40
0.994716
  0
CIRCLE
  5
48F
330
6B
100
AcDbEntity
  8
0
100
AcDbCircle
 10
90.187878
 20
61.420638
 30
0.0
 40
0.994716
  0
CIRCLE
  5
490
330
6B
100
AcDbEntity
  8
0
100
AcDbCircle
 10
88.187878
 20
61.420638
 30
0.0
 40
0.994716
  0
CIRCLE
  5
491
330
6B
100
AcDbEntity
  8
0
100
AcDbCircle
 10
86.18787799999998
 20
61.420638
 30
0.0
 40
0.994716
  0
CIRCLE
  5
492
330
6B
100
AcDbEntity
  8
0
100
AcDbCircle
 10
84.187878
 20
61.420638
 30
0.0
 40
0.994716
  0
CIRCLE
  5
493
330
6B
100
AcDbEntity
  8
0
100
AcDbCircle
 10
82.18787799999999
 20
61.420638
 30
0.0
 40
0.994716
  0
CIRCLE
  5
494
330
6B
100
AcDbEntity
  8
0
100
AcDbCircle
 10
80.187878
 20
61.420638
 30
0.0
 40
0.994716
  0
CIRCLE
  5
495
330
6B
100
AcDbEntity
  8
0
100
AcDbCircle
 10
78.18787799999999
 20
61.420638
 30
0.0
 40
0.994716
  0
LINE
  5
498
330
6B
100
AcDbEntity
  8
0
 62
     3
100
AcDbLine
 10
169.300637
 20
-121.834277
 30
0.0
 11
169.300637
 21
-98.834277
 31
0.0
  0
LINE
  5
49A
330
6B
100
AcDbEntity
  8
0
 62
     3
100
AcDbLine
 10
116.247027
 20
-128.834277
 30
0.0
 11
116.247027
 21
-114.834277
 31
0.0
  0
TEXT
  5
49C
330
6B
100
AcDbEntity
  8
0
 62
     3
100
AcDbText
 10
145.310955
 20
-102.629161
 30
0.0
 40
2.0
  1
A
 41
0.7
100
AcDbText
  0
TEXT
  5
49D
330
6B
100
AcDbEntity
  8
0
 62
     3
100
AcDbText
 10
147.846241
 20
-102.629161
 30
0.0
 40
2.0
  1
P
 41
0.7
100
AcDbText
  0
TEXT
  5
49E
330
6B
100
AcDbEntity
  8
0
 62
     3
100
AcDbText
 10
150.381527
 20
-102.629161
 30
0.0
 40
2.0
  1
P
 41
0.7
100
AcDbText
  0
TEXT
  5
49F
330
6B
100
AcDbEntity
  8
0
 62
     3
100
AcDbText
 10
152.916813
 20
-102.629161
 30
0.0
 40
2.0
  1
D
 41
0.7
100
AcDbText
  0
TEXT
  5
4A0
330
6B
100
AcDbEntity
  8
0
 62
     3
100
AcDbText
 10
158.285496
 20
-102.629161
 30
0.0
 40
2.0
  1
C
 41
0.7
100
AcDbText
  0
TEXT
  5
4A1
330
6B
100
AcDbEntity
  8
0
 62
     3
100
AcDbText
 10
160.820783
 20
-102.629161
 30
0.0
 40
2.0
  1
H
 41
0.7
100
AcDbText
  0
TEXT
  5
4A2
330
6B
100
AcDbEntity
  8
0
 62
     3
100
AcDbText
 10
163.356069
 20
-102.629161
 30
0.0
 40
2.0
  1
C
 41
0.7
100
AcDbText
  0
TEXT
  5
4A3
330
6B
100
AcDbEntity
  8
0
 62
     3
100
AcDbText
 10
165.891355
 20
-102.629161
 30
0.0
 40
2.0
  1
K
 41
0.7
100
AcDbText
  0
TEXT
  5
4A4
330
6B
100
AcDbEntity
  8
0
 62
     3
100
AcDbText
 10
171.565322
 20
-102.629161
 30
0.0
 40
2.0
  1
DESN
 41
1.216762999999998
100
AcDbText
  0
TEXT
  5
4A5
330
6B
100
AcDbEntity
  8
0
 62
     3
100
AcDbText
 10
86.558963
 20
-131.975659
 30
0.0
 40
2.0
  1
NICHIDO IND.CO.LTD
 41
1.274876
100
AcDbText
  0
LINE
  5
4A6
330
6B
100
AcDbEntity
  8
0
 62
     3
100
AcDbLine
 10
96.94199199999999
 20
-98.834277
 30
0.0
 11
96.94199199999999
 21
-121.834277
 31
0.0
  0
LINE
  5
4A7
330
6B
100
AcDbEntity
  8
0
 62
     3
100
AcDbLine
 10
143.300637
 20
-98.834277
 30
0.0
 11
143.300637
 21
-138.5
 31
0.0
  0
LINE
  5
4AC
330
6B
100
AcDbEntity
  8
0
 62
     3
100
AcDbLine
 10
156.300637
 20
-98.834277
 30
0.0
 11
156.300637
 21
-128.834277
 31
0.0
  0
TEXT
  5
4AD
330
6B
100
AcDbEntity
  8
0
 62
     3
100
AcDbText
 10
144.413081
 20
-127.969591
 30
0.0
 40
3.2
  1
作成日
 41
1.017225999999997
100
AcDbText
  0
LINE
  5
4AE
330
6B
100
AcDbEntity
  8
0
 62
     3
100
AcDbLine
 10
195.0
 20
-98.834277
 30
0.0
 11
83.696558
 21
-98.834277
 31
0.0
  0
LINE
  5
4AF
330
6B
100
AcDbEntity
  8
0
 62
     3
100
AcDbLine
 10
182.300637
 20
-121.834277
 30
0.0
 11
182.300637
 21
-98.834277
 31
0.0
  0
TEXT
  5
4B0
330
6B
100
AcDbEntity
  8
0
 62
     3
100
AcDbText
 10
185.62444
 20
-102.543343
 30
0.0
 40
1.8
  1
D
 41
0.666667
100
AcDbText
  0
TEXT
  5
4B1
330
6B
100
AcDbEntity
  8
0
 62
     3
100
AcDbText
 10
188.441068
 20
-102.543343
 30
0.0
 40
1.8
  1
E
 41
0.666667
100
AcDbText
  0
TEXT
  5
4B2
330
6B
100
AcDbEntity
  8
0
 62
     3
100
AcDbText
 10
191.257696
 20
-102.543343
 30
0.0
 40
1.8
  1
F
 41
0.666667
100
AcDbText
  0
TEXT
  5
4B3
330
6B
100
AcDbEntity
  8
0
 62
     3
100
AcDbText
 10
185.62444
 20
-106.535896
 30
0.0
 40
3.2
  1
製図
 41
1.076369
100
AcDbText
  0
LINE
  5
4B4
330
6B
100
AcDbEntity
  8
0
 62
     3
100
AcDbLine
 10
83.696558
 20
-98.834277
 30
0.0
 11
83.696558
 21
-138.5
 31
0.0
  0
TEXT
  5
4B5
330
6B
100
AcDbEntity
  8
0
 62
     3
100
AcDbText
 10
85.07321000000002
 20
-138.167535
 30
0.0
 40
5.0
  1
日動工業株式会社
 41
0.833333
100
AcDbText
  0
LINE
  5
4B6
330
6B
100
AcDbEntity
  8
0
 62
     3
100
AcDbLine
 10
126.578961
 20
-114.834277
 30
0.0
 11
126.578961
 21
-138.5
 31
0.0
  0
LINE
  5
4B7
330
6B
100
AcDbEntity
  8
0
 62
     3
100
AcDbLine
 10
126.578961
 20
-133.667139
 30
0.0
 11
143.300637
 21
-133.667139
 31
0.0
  0
TEXT
  5
4B8
330
6B
100
AcDbEntity
  8
0
 62
     3
100
AcDbText
 10
127.165563
 20
-132.850708
 30
0.0
 40
3.2
  1
出図コード
 41
0.8356860000000001
100
AcDbText
  0
LINE
  5
4BA
330
6B
100
AcDbEntity
  8
0
 62
     3
100
AcDbLine
 10
83.696558
 20
-128.834277
 30
0.0
 11
195.0
 21
-128.834277
 31
0.0
  0
LINE
  5
4BC
330
6B
100
AcDbEntity
  8
0
 62
     3
100
AcDbLine
 10
83.696558
 20
-107.834277
 30
0.0
 11
195.0
 21
-107.834277
 31
0.0
  0
LINE
  5
4C2
330
6B
100
AcDbEntity
  8
0
 62
     3
100
AcDbLine
 10
83.696558
 20
-114.834277
 30
0.0
 11
143.300637
 21
-114.834277
 31
0.0
  0
LINE
  5
4C8
330
6B
100
AcDbEntity
  8
0
 62
     3
100
AcDbLine
 10
83.696558
 20
-121.834277
 30
0.0
 11
195.0
 21
-121.834277
 31
0.0
  0
TEXT
  5
4C9
330
6B
100
AcDbEntity
  8
0
 62
     3
100
AcDbText
 10
127.033015
 20
-137.9985078833883
 30
0.0
 40
3.2
  1
ZK-A3X
 41
0.8112849999999999
100
AcDbText
  0
TEXT
  5
4CA
330
6B
100
AcDbEntity
  8
0
 62
     3
100
AcDbText
 10
85.513954
 20
-102.664752
 30
0.0
 40
2.0
  1
CONPONENTS
 41
0.5331600000000001
100
AcDbText
  0
TEXT
  5
4CB
330
6B
100
AcDbEntity
  8
0
 62
     3
100
AcDbText
 10
85.164228
 20
-121.596928
 30
0.0
 40
3.0
  1
材
 41
0.833333
100
AcDbText
  0
TEXT
  5
4CC
330
6B
100
AcDbEntity
  8
0
 62
     3
100
AcDbText
 10
92.69986999999998
 20
-121.596928
 30
0.0
 40
3.0
  1
質
 41
0.833333
100
AcDbText
  0
TEXT
  5
4CD
330
6B
100
AcDbEntity
  8
0
 62
     3
100
AcDbText
 10
85.25229799999998
 20
-110.972404
 30
0.0
 40
2.0
  1
MODEL
 41
1.031072999999999
100
AcDbText
  0
TEXT
  5
4CE
330
6B
100
AcDbEntity
  8
0
 62
     3
100
AcDbText
 10
85.164228
 20
-117.91462
 30
0.0
 40
2.0
  1
MATERIAL
 41
0.659278
100
AcDbText
  0
TEXT
  5
4CF
330
6B
100
AcDbEntity
  8
0
 62
     3
100
AcDbText
 10
116.471508
 20
-121.596928
 30
0.0
 40
3.0
  1
備
 41
0.833333
100
AcDbText
  0
TEXT
  5
4D0
330
6B
100
AcDbEntity
  8
0
 62
     3
100
AcDbText
 10
123.20451
 20
-121.596928
 30
0.0
 40
3.0
  1
考
 41
0.833333
100
AcDbText
  0
TEXT
  5
4D1
330
6B
100
AcDbEntity
  8
0
 62
     3
100
AcDbText
 10
116.848387302871
 20
-117.91462
 30
0.0
 40
2.0
  1
REMARKS
 41
0.675794
100
AcDbText
  0
TEXT
  5
4D2
330
6B
100
AcDbEntity
  8
0
 62
     3
100
AcDbText
 10
86.75395700000001
 20
-124.834741
 30
0.0
 40
2.0
  1
3AD
 41
1.42614
100
AcDbText
  0
TEXT
  5
4D3
330
6B
100
AcDbEntity
  8
0
 62
     3
100
AcDbText
 10
96.06493700000001
 20
-124.669007
 30
0.0
 40
2.0
  1
ANGLE
 41
1.669883999999995
100
AcDbText
  0
TEXT
  5
4D4
330
6B
100
AcDbEntity
  8
0
 62
     3
100
AcDbText
 10
116.998824
 20
-125.045848
 30
0.0
 40
2.0
  1
SCALE
 41
0.7719630000000001
100
AcDbText
  0
TEXT
  5
4D5
330
6B
100
AcDbEntity
  8
0
 62
     3
100
AcDbText
 10
86.440087
 20
-128.834277
 30
0.0
 40
3.0
  1
第
 41
0.833333
100
AcDbText
  0
TEXT
  5
4D6
330
6B
100
AcDbEntity
  8
0
 62
     3
100
AcDbText
 10
94.22693700000001
 20
-128.834277
 30
0.0
 40
3.0
  1
三
 41
0.833333
100
AcDbText
  0
TEXT
  5
4D7
330
6B
100
AcDbEntity
  8
0
 62
     3
100
AcDbText
 10
102.013787
 20
-128.834277
 30
0.0
 40
3.0
  1
角
 41
0.833333
100
AcDbText
  0
TEXT
  5
4D8
330
6B
100
AcDbEntity
  8
0
 62
     3
100
AcDbText
 10
109.800637
 20
-128.834277
 30
0.0
 40
3.0
  1
法
 41
0.833333
100
AcDbText
  0
TEXT
  5
4D9
330
6B
100
AcDbEntity
  8
0
 62
     3
100
AcDbText
 10
116.862029
 20
-128.545848
 30
0.0
 40
3.0
  1
尺
 41
0.833333
100
AcDbText
  0
TEXT
  5
4DA
330
6B
100
AcDbEntity
  8
0
 62
     3
100
AcDbText
 10
123.59503
 20
-128.545848
 30
0.0
 40
3.0
  1
度
 41
0.833333
100
AcDbText
  0
TEXT
  5
4DB
330
6B
100
AcDbEntity
  8
0
 62
     3
100
AcDbText
 10
146.178301
 20
-106.376549
 30
0.0
 40
3.0
  1
承認
 41
1.089472999999999
100
AcDbText
  0
TEXT
  5
4DC
330
6B
100
AcDbEntity
  8
0
 62
     3
100
AcDbText
 10
159.421181
 20
-106.434277
 30
0.0
 40
3.0
  1
検図
 41
0.931761
100
AcDbText
  0
TEXT
  5
4DD
330
6B
100
AcDbEntity
  8
0
 62
     3
100
AcDbText
 10
172.421578
 20
-106.434277
 30
0.0
 40
3.0
  1
設
 41
0.833333
100
AcDbText
  0
TEXT
  5
4DE
330
6B
100
AcDbEntity
  8
0
 62
     3
100
AcDbText
 10
176.911446
 20
-106.434277
 30
0.0
 40
3.0
  1
計
 41
0.833333
100
AcDbText
  0
TEXT
  5
4DF
330
6B
100
AcDbEntity
  8
0
 62
     3
100
AcDbText
 10
85.584061
 20
-106.261725
 30
0.0
 40
3.0
  1
品
 41
0.833333
100
AcDbText
  0
TEXT
  5
4E0
330
6B
100
AcDbEntity
  8
0
 62
     3
100
AcDbText
 10
93.119703
 20
-106.261725
 30
0.0
 40
3.0
  1
名
 41
0.833333
100
AcDbText
  0
TEXT
  5
4E1
330
6B
100
AcDbEntity
  8
0
 62
     3
100
AcDbText
 10
85.25229799999998
 20
-114.4709741443602
 30
0.0
 40
3.0
  1
型
 41
0.833333
100
AcDbText
  0
TEXT
  5
4E2
330
6B
100
AcDbEntity
  8
0
 62
     3
100
AcDbText
 10
92.80038899999999
 20
-114.4709741443602
 30
0.0
 40
3.0
  1
式
 41
0.833333
100
AcDbText
  0
LINE
  5
4E3
330
6B
100
AcDbEntity
  8
0
100
AcDbLine
 10
-154.9113346310736
 20
-9.018486678460693
 30
0.0
 11
-111.3308855469683
 21
-9.018486678460693
 31
0.0
  0
TEXT
  5
4E4
330
6B
100
AcDbEntity
  8
0
 62
     3
100
AcDbText
 10
-184.1157787081876
 20
-78.0
 30
0.0
 40
3.2
  1
ベルマウス
 41
0.8
  7
高3.2
100
AcDbText
  0
TEXT
  5
4E5
330
6B
100
AcDbEntity
  8
0
 62
     3
100
AcDbText
 10
-184.1157787081876
 20
-83.0
 30
0.0
 40
3.2
  1
電線
 41
0.8
  7
高3.2
100
AcDbText
  0
TEXT
  5
4E6
330
6B
100
AcDbEntity
  8
0
 62
     3
100
AcDbText
 10
-184.1157787081876
 20
-98.0
 30
0.0
 40
3.2
  1
サドル
 41
0.8
  7
高3.2
100
AcDbText
  0
TEXT
  5
4E7
330
6B
100
AcDbEntity
  8
0
 62
     3
100
AcDbText
 10
-184.1157787081876
 20
-103.0
 30
0.0
 40
3.2
  1
組立ボルト
 41
0.8
  7
高3.2
100
AcDbText
  0
TEXT
  5
4E8
330
6B
100
AcDbEntity
  8
0
 62
     3
100
AcDbText
 10
-184.1157787081876
 20
-108.0
 30
0.0
 40
3.2
  1
ハンドル
 41
0.8
  7
高3.2
100
AcDbText
  0
TEXT
  5
4E9
330
6B
100
AcDbEntity
  8
0
 62
     3
100
AcDbText
 10
-184.1157787081876
 20
-113.0
 30
0.0
 40
3.2
  1
キャップ
 41
0.8
  7
高3.2
100
AcDbText
  0
TEXT
  5
4EA
330
6B
100
AcDbEntity
  8
0
 62
     3
100
AcDbText
 10
-184.1157787081876
 20
-118.0
 30
0.0
 40
3.2
  1
シャフト
 41
0.8
  7
高3.2
100
AcDbText
  0
TEXT
  5
4EB
330
6B
100
AcDbEntity
  8
0
 62
     3
100
AcDbText
 10
-184.1157787081876
 20
-123.0
 30
0.0
 40
3.2
  1
巻胴
 41
0.8
  7
高3.2
100
AcDbText
  0
TEXT
  5
4EC
330
6B
100
AcDbEntity
  8
0
 62
     3
100
AcDbText
 10
-184.1157787081876
 20
-128.0
 30
0.0
 40
3.2
  1
側板
 41
0.8
  7
高3.2
100
AcDbText
  0
TEXT
  5
4ED
330
6B
100
AcDbEntity
  8
0
 62
     3
100
AcDbText
 10
-184.1157787081876
 20
-133.0
 30
0.0
 40
3.2
  1
フレーム
 41
0.8
  7
高3.2
100
AcDbText
  0
TEXT
  5
4EE
330
6B
100
AcDbEntity
  8
0
 62
     3
100
AcDbText
 10
-101.8945367199547
 20
-98.0
 30
0.0
 40
3.2
  1
1
 41
0.8
  7
高3.2
100
AcDbText
  0
TEXT
  5
4EF
330
6B
100
AcDbEntity
  8
0
 62
     3
100
AcDbText
 10
-101.8945367199547
 20
-103.0
 30
0.0
 40
3.2
  1
6
 41
0.8
  7
高3.2
100
AcDbText
  0
TEXT
  5
4F0
330
6B
100
AcDbEntity
  8
0
 62
     3
100
AcDbText
 10
-101.8945367199547
 20
-108.0
 30
0.0
 40
3.2
  1
1
 41
0.8
  7
高3.2
100
AcDbText
  0
TEXT
  5
4F1
330
6B
100
AcDbEntity
  8
0
 62
     3
100
AcDbText
 10
-101.8945367199547
 20
-113.0
 30
0.0
 40
3.2
  1
1
 41
0.8
  7
高3.2
100
AcDbText
  0
TEXT
  5
4F2
330
6B
100
AcDbEntity
  8
0
 62
     3
100
AcDbText
 10
-101.8945367199547
 20
-118.0
 30
0.0
 40
3.2
  1
1
 41
0.8
  7
高3.2
100
AcDbText
  0
TEXT
  5
4F3
330
6B
100
AcDbEntity
  8
0
 62
     3
100
AcDbText
 10
-101.8945367199547
 20
-123.0
 30
0.0
 40
3.2
  1
1
 41
0.8
  7
高3.2
100
AcDbText
  0
TEXT
  5
4F4
330
6B
100
AcDbEntity
  8
0
 62
     3
100
AcDbText
 10
-101.8945367199547
 20
-128.0
 30
0.0
 40
3.2
  1
2
 41
0.8
  7
高3.2
100
AcDbText
  0
TEXT
  5
4F5
330
6B
100
AcDbEntity
  8
0
 62
     3
100
AcDbText
 10
-101.8945367199547
 20
-133.0
 30
0.0
 40
3.2
  1
1
 41
0.8
  7
高3.2
100
AcDbText
  0
TEXT
  5
4F6
330
6B
100
AcDbEntity
  8
0
 62
     3
100
AcDbText
 10
-164.0958305087
 20
-133.0
 30
0.0
 40
3.2
  1
STKM
 41
0.8
  7
高3.2
100
AcDbText
  0
TEXT
  5
4F7
330
6B
100
AcDbEntity
  8
0
 62
     3
100
AcDbText
 10
-164.0958305087
 20
-128.0
 30
0.0
 40
3.2
  1
SPCC
 41
0.8
  7
高3.2
100
AcDbText
  0
TEXT
  5
4F8
330
6B
100
AcDbEntity
  8
0
 62
     3
100
AcDbText
 10
-164.0958305087
 20
-123.0
 30
0.0
 40
3.2
  1
SPCC
 41
0.8
  7
高3.2
100
AcDbText
  0
TEXT
  5
4F9
330
6B
100
AcDbEntity
  8
0
 62
     3
100
AcDbText
 10
-164.0958305087
 20
-118.0
 30
0.0
 40
3.2
  1
STKM
 41
0.8
  7
高3.2
100
AcDbText
  0
TEXT
  5
4FA
330
6B
100
AcDbEntity
  8
0
 62
     3
100
AcDbText
 10
-164.0958305087
 20
-113.0
 30
0.0
 40
3.2
  1
SS41
 41
0.8
  7
高3.2
100
AcDbText
  0
TEXT
  5
4FB
330
6B
100
AcDbEntity
  8
0
 62
     3
100
AcDbText
 10
-164.0958305087
 20
-108.0
 30
0.0
 40
3.2
  1
SPCC、樹脂
 41
0.8
  7
高3.2
100
AcDbText
  0
TEXT
  5
4FC
330
6B
100
AcDbEntity
  8
0
 62
     3
100
AcDbText
 10
-164.0958305087
 20
-103.0
 30
0.0
 40
3.2
  1
SS41
 41
0.8
  7
高3.2
100
AcDbText
  0
TEXT
  5
4FD
330
6B
100
AcDbEntity
  8
0
 62
     3
100
AcDbText
 10
-142.1900566770734
 20
-118.0
 30
0.0
 40
3.2
  1
\U+03C634
 41
0.8
  7
高3.2
100
AcDbText
  0
TEXT
  5
4FE
330
6B
100
AcDbEntity
  8
0
 62
     3
100
AcDbText
 10
-142.1900566770734
 20
-128.0
 30
0.0
 40
3.2
  1
\U+03C6480
 41
0.8
  7
高3.2
100
AcDbText
  0
TEXT
  5
4FF
330
6B
100
AcDbEntity
  8
0
 62
     3
100
AcDbText
 10
-193.5
 20
-93.0
 30
0.0
 40
3.2
  1
9
 41
0.8
  7
高3.2
100
AcDbText
  0
TEXT
  5
500
330
6B
100
AcDbEntity
  8
0
 62
     3
100
AcDbText
 10
-193.5
 20
-98.0
 30
0.0
 40
3.2
  1
8
 41
0.8
  7
高3.2
100
AcDbText
  0
TEXT
  5
501
330
6B
100
AcDbEntity
  8
0
 62
     3
100
AcDbText
 10
-193.5
 20
-103.0
 30
0.0
 40
3.2
  1
7
 41
0.8
  7
高3.2
100
AcDbText
  0
TEXT
  5
502
330
6B
100
AcDbEntity
  8
0
 62
     3
100
AcDbText
 10
-193.5
 20
-108.0
 30
0.0
 40
3.2
  1
6
 41
0.8
  7
高3.2
100
AcDbText
  0
TEXT
  5
503
330
6B
100
AcDbEntity
  8
0
 62
     3
100
AcDbText
 10
-193.5
 20
-113.0
 30
0.0
 40
3.2
  1
5
 41
0.8
  7
高3.2
100
AcDbText
  0
TEXT
  5
504
330
6B
100
AcDbEntity
  8
0
 62
     3
100
AcDbText
 10
-193.5
 20
-118.0
 30
0.0
 40
3.2
  1
4
 41
0.8
  7
高3.2
100
AcDbText
  0
TEXT
  5
505
330
6B
100
AcDbEntity
  8
0
 62
     3
100
AcDbText
 10
-193.5
 20
-123.0
 30
0.0
 40
3.2
  1
3
 41
0.8
  7
高3.2
100
AcDbText
  0
TEXT
  5
506
330
6B
100
AcDbEntity
  8
0
 62
     3
100
AcDbText
 10
-193.5
 20
-128.0
 30
0.0
 40
3.2
  1
2
 41
0.8
  7
高3.2
100
AcDbText
  0
TEXT
  5
507
330
6B
100
AcDbEntity
  8
0
 62
     3
100
AcDbText
 10
-193.5
 20
-133.0
 30
0.0
 40
3.2
  1
1
 41
0.8
  7
高3.2
100
AcDbText
  0
TEXT
  5
508
330
6B
100
AcDbEntity
  8
0
 62
     3
100
AcDbText
 10
-184.1157787081876
 20
-88.0
 30
0.0
 40
3.2
  1
プラグ
 41
0.8
  7
高3.2
100
AcDbText
  0
TEXT
  5
509
330
6B
100
AcDbEntity
  8
0
 62
     3
100
AcDbText
 10
-184.1157787081876
 20
-93.0
 30
0.0
 40
3.2
  1
コンセント
 41
0.8
  7
高3.2
100
AcDbText
  0
TEXT
  5
50A
330
6B
100
AcDbEntity
  8
0
 62
     3
100
AcDbText
 10
-101.8945367199547
 20
-78.0
 30
0.0
 40
3.2
  1
3
 41
0.8
  7
高3.2
100
AcDbText
  0
TEXT
  5
50B
330
6B
100
AcDbEntity
  8
0
 62
     3
100
AcDbText
 10
-101.8945367199547
 20
-83.0
 30
0.0
 40
3.2
  1
1
 41
0.8
  7
高3.2
100
AcDbText
  0
TEXT
  5
50D
330
6B
100
AcDbEntity
  8
0
 62
     3
100
AcDbText
 10
-101.8945367199547
 20
-93.0
 30
0.0
 40
3.2
  1
1式
 41
0.8
  7
高3.2
100
AcDbText
  0
TEXT
  5
50E
330
6B
100
AcDbEntity
  8
0
 62
     3
100
AcDbText
 10
-164.0958305087
 20
-83.0
 30
0.0
 40
3.2
  1
3PNCT
 41
0.8
  7
高3.2
100
AcDbText
  0
TEXT
  5
50F
330
6B
100
AcDbEntity
  8
0
 62
     3
100
AcDbText
 10
-142.1900566770734
 20
-78.0
 30
0.0
 40
3.2
  1
EX22BWE
 41
0.8
  7
高3.2
100
AcDbText
  0
TEXT
  5
510
330
6B
100
AcDbEntity
  8
0
 62
     3
100
AcDbText
 10
-142.1900566770734
 20
-93.0
 30
0.0
 40
3.2
  1
岩崎電気EXSCK1135
 41
0.8
  7
高3.2
100
AcDbText
  0
TEXT
  5
511
330
6B
100
AcDbEntity
  8
0
 62
     3
100
AcDbText
 10
-193.5
 20
-78.0
 30
0.0
 40
3.2
  1
12
 41
0.8
  7
高3.2
100
AcDbText
  0
TEXT
  5
512
330
6B
100
AcDbEntity
  8
0
 62
     3
100
AcDbText
 10
-193.5
 20
-83.0
 30
0.0
 40
3.2
  1
11
 41
0.8
  7
高3.2
100
AcDbText
  0
TEXT
  5
513
330
6B
100
AcDbEntity
  8
0
 62
     3
100
AcDbText
 10
-193.5
 20
-88.0
 30
0.0
 40
3.2
  1
10
 41
0.8
  7
高3.2
100
AcDbText
  0
TEXT
  5
514
330
6B
100
AcDbEntity
  8
0
 62
     3
100
AcDbText
 10
-164.0958305087
 20
-78.0
 30
0.0
 40
3.2
  1
黄銅
 41
0.8
  7
高3.2
100
AcDbText
  0
TEXT
  5
515
330
6B
100
AcDbEntity
  8
0
 62
     3
100
AcDbText
 10
-142.1900566770734
 20
-83.0
 30
0.0
 40
3.2
  1
2.0sqx3芯x50m
 41
0.8
  7
高3.2
100
AcDbText
  0
LINE
  5
516
330
6B
100
AcDbEntity
  8
0
 62
     3
100
AcDbLine
 10
194.899964
 20
-92.834277
 30
0.0
 11
143.3006
 21
-92.834277
 31
0.0
  0
TEXT
  5
517
330
6B
100
AcDbEntity
  8
0
 62
     3
100
AcDbText
 10
148.5597827400368
 20
-98.278192
 30
0.0
 40
4.5
  1
コード
  7
高4.5
100
AcDbText
  0
LINE
  5
518
330
6B
100
AcDbEntity
  8
0
 62
     3
100
AcDbLine
 10
169.3006
 20
-98.834277
 30
0.0
 11
169.3006
 21
-92.834277
 31
0.0
  0
LINE
  5
519
330
6B
100
AcDbEntity
  8
0
 62
     3
100
AcDbLine
 10
143.3006
 20
-98.834277
 30
0.0
 11
143.3006
 21
-92.834277
 31
0.0
  0
TEXT
  5
51A
330
6B
100
AcDbEntity
  8
0
 62
     3
100
AcDbText
 10
173.2221461963574
 20
-98.335921
 30
0.0
 40
4.5
  1
5285
  7
高4.5
100
AcDbText
  0
LINE
  5
51B
330
6B
100
AcDbEntity
  8
0
 62
     3
100
AcDbLine
 10
-27.66929239803247
 20
-73.5
 30
0.0
 11
-195.0
 21
-73.5
 31
0.0
  0
LINE
  5
51C
330
6B
100
AcDbEntity
  8
0
100
AcDbLine
 10
-27.66929239803247
 20
-128.5
 30
0.0
 11
-195.0
 21
-128.5
 31
0.0
  0
LINE
  5
51D
330
6B
100
AcDbEntity
  8
0
100
AcDbLine
 10
-27.66929239803247
 20
-123.5
 30
0.0
 11
-195.0
 21
-123.5
 31
0.0
  0
LINE
  5
51E
330
6B
100
AcDbEntity
  8
0
100
AcDbLine
 10
-27.66929239803247
 20
-118.5
 30
0.0
 11
-195.0
 21
-118.5
 31
0.0
  0
LINE
  5
51F
330
6B
100
AcDbEntity
  8
0
100
AcDbLine
 10
-27.66929239803247
 20
-113.5
 30
0.0
 11
-195.0
 21
-113.5
 31
0.0
  0
LINE
  5
520
330
6B
100
AcDbEntity
  8
0
100
AcDbLine
 10
-27.66929239803247
 20
-108.5
 30
0.0
 11
-195.0
 21
-108.5
 31
0.0
  0
LINE
  5
521
330
6B
100
AcDbEntity
  8
0
100
AcDbLine
 10
-27.66929239803247
 20
-98.50000000000001
 30
0.0
 11
-195.0
 21
-98.50000000000001
 31
0.0
  0
LINE
  5
522
330
6B
100
AcDbEntity
  8
0
100
AcDbLine
 10
-165.5958305086999
 20
-88.49999999999999
 30
0.0
 11
-195.0
 21
-88.49999999999999
 31
0.0
  0
LINE
  5
523
330
6B
100
AcDbEntity
  8
0
100
AcDbLine
 10
-27.66929239803247
 20
-93.49999999999999
 30
0.0
 11
-195.0
 21
-93.49999999999999
 31
0.0
  0
LINE
  5
524
330
6B
100
AcDbEntity
  8
0
100
AcDbLine
 10
-27.66929239803247
 20
-83.49999999999999
 30
0.0
 11
-195.0
 21
-83.49999999999999
 31
0.0
  0
LINE
  5
525
330
6B
100
AcDbEntity
  8
0
100
AcDbLine
 10
-27.66929239803247
 20
-78.5
 30
0.0
 11
-195.0
 21
-78.5
 31
0.0
  0
LINE
  5
526
330
6B
100
AcDbEntity
  8
0
100
AcDbLine
 10
-27.66929239803247
 20
-103.5
 30
0.0
 11
-195.0
 21
-103.5
 31
0.0
  0
LINE
  5
527
330
6B
100
AcDbEntity
  8
0
 62
     3
100
AcDbLine
 10
-27.66929239803247
 20
-133.4999999999999
 30
0.0
 11
-195.0
 21
-133.5
 31
0.0
  0
TEXT
  5
528
330
6B
100
AcDbEntity
  8
0
 62
     3
100
AcDbText
 10
97.69854399999999
 20
-114.03214
 30
0.0
 40
4.5
  1
EXR-150-iwasaki
 41
0.7
  7
高4.5
100
AcDbText
  0
TEXT
  5
529
330
6B
100
AcDbEntity
  8
0
 62
     3
100
AcDbText
 10
144.670394980159
 20
-137.6199
 30
0.0
 40
6.299999999999998
  1
EXR-150-iwasaki
 41
0.6
  7
高6.3
100
AcDbText
  0
TEXT
  5
52B
330
6B
100
AcDbEntity
  8
0
 62
     3
100
AcDbText
 10
-142.1900566770734
 20
-133.0
 30
0.0
 40
3.2
  1
\U+03C622.2x1.6、FB75x6
 41
0.8
  7
高3.2
100
AcDbText
  0
CIRCLE
  5
532
330
6B
100
AcDbEntity
  8
0
100
AcDbCircle
 10
-121.341559
 20
91.683032
 30
0.0
 40
5.0
  0
TEXT
  5
533
330
6B
100
AcDbEntity
  8
0
 62
     4
100
AcDbText
 10
-123.0793429170301
 20
88.32663686906609
 30
0.0
 40
6.299999999999998
  1
7
  7
高6.3
100
AcDbText
  0
CIRCLE
  5
53A
330
6B
100
AcDbEntity
  8
0
100
AcDbCircle
 10
-104.753651
 20
91.683032
 30
0.0
 40
5.0
  0
TEXT
  5
53B
330
6B
100
AcDbEntity
  8
0
 62
     4
100
AcDbText
 10
-107.5735428276114
 20
89.32080098713823
 30
0.0
 40
4.5
  1
12
  7
高4.5
100
AcDbText
  0
CIRCLE
  5
542
330
6B
100
AcDbEntity
  8
0
100
AcDbCircle
 10
-91.60090099999999
 20
91.683032
 30
0.0
 40
5.0
  0
TEXT
  5
543
330
6B
100
AcDbEntity
  8
0
 62
     4
100
AcDbText
 10
-93.64757880679713
 20
88.20967619489849
 30
0.0
 40
6.299999999999998
  1
9
  7
高6.3
100
AcDbText
  0
CIRCLE
  5
54A
330
6B
100
AcDbEntity
  8
0
100
AcDbCircle
 10
-66.24423399999999
 20
91.683032
 30
0.0
 40
5.0
  0
TEXT
  5
54B
330
6B
100
AcDbEntity
  8
0
 62
     4
100
AcDbText
 10
-68.24023413408667
 20
88.49185266507959
 30
0.0
 40
6.299999999999998
  1
8
  7
高6.3
100
AcDbText
  0
CIRCLE
  5
54D
330
6B
100
AcDbEntity
  8
0
100
AcDbCircle
 10
34.278683
 20
91.683032
 30
0.0
 40
5.0
  0
TEXT
  5
54E
330
6B
100
AcDbEntity
  8
0
 62
     4
100
AcDbText
 10
32.29979944039155
 20
88.64145444230315
 30
0.0
 40
6.299999999999998
  1
6
  7
高6.3
100
AcDbText
  0
CIRCLE
  5
550
330
6B
100
AcDbEntity
  8
0
100
AcDbCircle
 10
137.756901
 20
52.81511899999999
 30
0.0
 40
5.0
  0
TEXT
  5
551
330
6B
100
AcDbEntity
  8
0
 62
     4
100
AcDbText
 10
135.51477143143
 20
49.44237449270895
 30
0.0
 40
6.299999999999998
  1
5
  7
高6.3
100
AcDbText
  0
CIRCLE
  5
553
330
6B
100
AcDbEntity
  8
0
100
AcDbCircle
 10
154.059351
 20
52.861881
 30
0.0
 40
5.0
  0
TEXT
  5
554
330
6B
100
AcDbEntity
  8
0
 62
     4
100
AcDbText
 10
151.6925808623637
 20
50.33166412877074
 30
0.0
 40
4.5
  1
11
  7
高4.5
100
AcDbText
  0
CIRCLE
  5
55B
330
6B
100
AcDbEntity
  8
0
100
AcDbCircle
 10
154.059351
 20
33.08904
 30
0.0
 40
5.0
  0
TEXT
  5
55C
330
6B
100
AcDbEntity
  8
0
 62
     4
100
AcDbText
 10
151.213531784098
 20
30.82324656152469
 30
0.0
 40
4.5
  1
10
  7
高4.5
100
AcDbText
  0
LINE
  5
55D
330
6B
100
AcDbEntity
  8
0
100
AcDbLine
 10
-185.6157787081875
 20
-73.5
 30
0.0
 11
-185.6157787081875
 21
-138.5
 31
0.0
  0
LINE
  5
55E
330
6B
100
AcDbEntity
  8
0
100
AcDbLine
 10
-103.3945367199547
 20
-73.5
 30
0.0
 11
-103.3945367199547
 21
-138.5
 31
0.0
  0
LINE
  5
55F
330
6B
100
AcDbEntity
  8
0
100
AcDbLine
 10
-165.5958305086999
 20
-73.5
 30
0.0
 11
-165.5958305086999
 21
-138.5
 31
0.0
  0
LINE
  5
560
330
6B
100
AcDbEntity
  8
0
100
AcDbLine
 10
-143.6900566770734
 20
-73.5
 30
0.0
 11
-143.6900566770734
 21
-138.5
 31
0.0
  0
LINE
  5
561
330
6B
100
AcDbEntity
  8
0
100
AcDbLine
 10
-95.4424720159317
 20
-73.5
 30
0.0
 11
-95.4424720159317
 21
-138.5
 31
0.0
  0
TEXT
  5
562
330
6B
100
AcDbEntity
  8
0
 62
     3
100
AcDbText
 10
-164.0958305087
 20
-98.0
 30
0.0
 40
3.2
  1
SUS
 41
0.8
  7
高3.2
100
AcDbText
  0
TEXT
  5
563
330
6B
100
AcDbEntity
  8
0
 62
     3
100
AcDbText
 10
-142.1900566770734
 20
-98.0
 30
0.0
 40
3.2
  1
AC-16
 41
0.8
  7
高3.2
100
AcDbText
  0
TEXT
  5
564
330
6B
100
AcDbEntity
  8
0
 62
     3
100
AcDbText
 10
-93.94247201593172
 20
-138.0
 30
0.0
 40
3.2
  1
コード
 41
0.8
  7
高3.2
100
AcDbText
  0
TEXT
  5
572
330
6B
100
AcDbEntity
  8
0
 62
     3
100
AcDbText
 10
-93.94247201593172
 20
-133.0
 30
0.0
 40
3.2
  1
50710
 41
0.8
  7
高3.2
100
AcDbText
  0
TEXT
  5
573
330
6B
100
AcDbEntity
  8
0
 62
     3
100
AcDbText
 10
-93.94247201593172
 20
-128.0
 30
0.0
 40
3.2
  1
50826
 41
0.8
  7
高3.2
100
AcDbText
  0
TEXT
  5
574
330
6B
100
AcDbEntity
  8
0
 62
     3
100
AcDbText
 10
-93.94247201593172
 20
-123.0
 30
0.0
 40
3.2
  1
51508
 41
0.8
  7
高3.2
100
AcDbText
  0
TEXT
  5
575
330
6B
100
AcDbEntity
  8
0
 62
     3
100
AcDbText
 10
-93.94247201593172
 20
-118.0
 30
0.0
 40
3.2
  1
50009
 41
0.8
  7
高3.2
100
AcDbText
  0
TEXT
  5
576
330
6B
100
AcDbEntity
  8
0
 62
     3
100
AcDbText
 10
-93.94247201593172
 20
-113.0
 30
0.0
 40
3.2
  1
50098
 41
0.8
  7
高3.2
100
AcDbText
  0
TEXT
  5
577
330
6B
100
AcDbEntity
  8
0
 62
     3
100
AcDbText
 10
-93.94247201593172
 20
-108.0
 30
0.0
 40
3.2
  1
52853
 41
0.8
  7
高3.2
100
AcDbText
  0
TEXT
  5
578
330
6B
100
AcDbEntity
  8
0
 62
     3
100
AcDbText
 10
-93.94247201593172
 20
-103.0
 30
0.0
 40
3.2
  1
50564
 41
0.8
  7
高3.2
100
AcDbText
  0
TEXT
  5
579
330
6B
100
AcDbEntity
  8
0
 62
     3
100
AcDbText
 10
-93.94247201593172
 20
-98.0
 30
0.0
 40
3.2
  1
50125
 41
0.8
  7
高3.2
100
AcDbText
  0
TEXT
  5
57A
330
6B
100
AcDbEntity
  8
0
 62
     3
100
AcDbText
 10
-93.94247201593172
 20
-93.0
 30
0.0
 40
3.2
  1
50510
 41
0.8
  7
高3.2
100
AcDbText
  0
TEXT
  5
57B
330
6B
100
AcDbEntity
  8
0
 62
     3
100
AcDbText
 10
-93.94247201593172
 20
-83.0
 30
0.0
 40
3.2
  1
51135
 41
0.8
  7
高3.2
100
AcDbText
  0
TEXT
  5
57C
330
6B
100
AcDbEntity
  8
0
 62
     3
100
AcDbText
 10
-93.94247201593172
 20
-78.0
 30
0.0
 40
3.2
  1
50508
 41
0.8
  7
高3.2
100
AcDbText
  0
TEXT
  5
8E2
330
6B
100
AcDbEntity
  8
0
 62
     3
100
AcDbText
 10
-79.89430676813945
 20
-113.0
 30
0.0
 40
3.2
  1
シャフトキャップ（クローメート）（NDF用）
 41
0.6
  7
高3.2
100
AcDbText
  0
TEXT
  5
8E3
330
6B
100
AcDbEntity
  8
0
 62
     3
100
AcDbText
 10
-79.89430676813945
 20
-108.0
 30
0.0
 40
3.2
  1
SLK-100折りたたみハンドル
 41
0.6
  7
高3.2
100
AcDbText
  0
TEXT
  5
8E4
330
6B
100
AcDbEntity
  8
0
 62
     3
100
AcDbText
 10
-79.89430676813945
 20
-103.0
 30
0.0
 40
3.2
  1
組立ボルト12\U+03C6x349 NDD
 41
0.6
  7
高3.2
100
AcDbText
  0
TEXT
  5
8E5
330
6B
100
AcDbEntity
  8
0
 62
     3
100
AcDbText
 10
-79.89430676813945
 20
-97.99999999999998
 30
0.0
 40
3.2
  1
サドル　AC-16
 41
0.6
  7
高3.2
100
AcDbText
  0
TEXT
  5
8E6
330
6B
100
AcDbEntity
  8
0
 62
     3
100
AcDbText
 10
-79.89430676813945
 20
-93.0
 30
0.0
 40
3.2
  1
岩崎 EXSCK1135
 41
0.6
  7
高3.2
100
AcDbText
  0
TEXT
  5
8E7
330
6B
100
AcDbEntity
  8
0
 62
     3
100
AcDbText
 10
-79.89430676813945
 20
-83.0
 30
0.0
 40
3.2
  1
3PNCT2x3
 41
0.6
  7
高3.2
100
AcDbText
  0
TEXT
  5
8E8
330
6B
100
AcDbEntity
  8
0
 62
     3
100
AcDbText
 10
-79.89430676813945
 20
-78.0
 30
0.0
 40
3.2
  1
岩崎　EX22BWE
 41
0.6
  7
高3.2
100
AcDbText
  0
TEXT
  5
8E9
330
6B
100
AcDbEntity
  8
0
 62
     3
100
AcDbText
 10
-79.89430676813945
 20
-118.0
 30
0.0
 40
3.2
  1
NDF－シャフトオーシャンブルー
 41
0.6
  7
高3.2
100
AcDbText
  0
TEXT
  5
8EA
330
6B
100
AcDbEntity
  8
0
 62
     3
100
AcDbText
 10
-79.89430676813945
 20
-123.0
 30
0.0
 40
3.2
  1
（内）NDD-L中枠加工（ボンデ）
 41
0.6
  7
高3.2
100
AcDbText
  0
TEXT
  5
8EB
330
6B
100
AcDbEntity
  8
0
 62
     3
100
AcDbText
 10
-79.89430676813945
 20
-128.0
 30
0.0
 40
3.2
  1
480\U+03C6側板　オーシャンブルー（NDB）
 41
0.6
  7
高3.2
100
AcDbText
  0
TEXT
  5
8EC
330
6B
100
AcDbEntity
  8
0
 62
     3
100
AcDbText
 10
-79.89430676813945
 20
-133.0
 30
0.0
 40
3.2
  1
NDF-470W脚　黒
 41
0.6
  7
高3.2
100
AcDbText
  0
TEXT
  5
8ED
330
6B
100
AcDbEntity
  8
0
 62
     3
100
AcDbText
 10
-79.89430676813945
 20
-138.0
 30
0.0
 40
3.2
  1
コード番号名称
 41
0.6
  7
高3.2
100
AcDbText
  0
LINE
  5
8EE
330
6B
100
AcDbEntity
  8
0
 62
     3
100
AcDbLine
 10
-27.66929239803247
 20
-73.5
 30
0.0
 11
-27.66929239803247
 21
-138.5
 31
0.0
  0
LINE
  5
BAB
330
6B
100
AcDbEntity
  8
0
100
AcDbLine
 10
-81.39430676813946
 20
-73.5
 30
0.0
 11
-81.39430676813946
 21
-138.5
 31
0.0
  0
TEXT
  5
DFC
330
6B
100
AcDbEntity
  8
0
 62
     3
100
AcDbText
 10
182.5
 20
129.0
 30
0.0
 40
3.2
  1
担　当
  7
高3.2
100
AcDbText
  0
TEXT
  5
DFD
330
6B
100
AcDbEntity
  8
0
 62
     3
100
AcDbText
 10
138.5
 20
129.0
 30
0.0
 40
3.2
  1
変更・追記内容
  7
高3.2
100
AcDbText
  0
TEXT
  5
DFE
330
6B
100
AcDbEntity
  8
0
 62
     3
100
AcDbText
 10
113.6135150003392
 20
124.3294614900917
 30
0.0
 40
2.0
  1
1
  7
高2
100
AcDbText
  0
TEXT
  5
DFF
330
6B
100
AcDbEntity
  8
0
 62
     3
100
AcDbText
 10
113.3050035235819
 20
119.1596447778188
 30
0.0
 40
2.0
  1
2
  7
高2
100
AcDbText
  0
TEXT
  5
E00
330
6B
100
AcDbEntity
  8
0
 62
     3
100
AcDbText
 10
120.5
 20
129.0
 30
0.0
 40
3.2
  1
日　付
  7
高3.2
100
AcDbText
  0
TEXT
  5
E01
330
6B
100
AcDbEntity
  8
0
 62
     3
100
AcDbText
 10
120.5
 20
134.0
 30
0.0
 40
3.2
  1
図　　　　面　　　　略　　　　歴
  7
高3.2
100
AcDbText
  0
TEXT
  5
E02
330
6B
100
AcDbEntity
  8
0
 62
     3
100
AcDbText
 10
110.5
 20
129.0
 30
0.0
 40
3.2
  1
記号
  7
高3.2
100
AcDbText
  0
LINE
  5
E03
330
6B
100
AcDbEntity
  8
0
 62
     7
100
AcDbLine
 10
114.0
 20
122.2908960000001
 30
0.0
 11
112.0999999999999
 21
119.0
 31
0.0
  0
LINE
  5
E04
330
6B
100
AcDbEntity
  8
0
 62
     7
100
AcDbLine
 10
114.0
 20
122.2908960000001
 30
0.0
 11
115.8999999999998
 21
119.0
 31
0.0
  0
LINE
  5
E05
330
6B
100
AcDbEntity
  8
0
 62
     7
100
AcDbLine
 10
112.0999999999999
 20
119.0
 30
0.0
 11
115.8999999999998
 21
119.0
 31
0.0
  0
LINE
  5
E06
330
6B
100
AcDbEntity
  8
0
 62
     7
100
AcDbLine
 10
114.0
 20
127.2908970000001
 30
0.0
 11
112.0999999999999
 21
124.0
 31
0.0
  0
LINE
  5
E07
330
6B
100
AcDbEntity
  8
0
 62
     7
100
AcDbLine
 10
114.0
 20
127.2908970000001
 30
0.0
 11
115.8999999999998
 21
124.0
 31
0.0
  0
LINE
  5
E08
330
6B
100
AcDbEntity
  8
0
 62
     7
100
AcDbLine
 10
112.0999999999999
 20
124.0
 30
0.0
 11
115.8999999999998
 21
124.0
 31
0.0
  0
LINE
  5
E09
330
6B
100
AcDbEntity
  8
0
 62
     3
100
AcDbLine
 10
109.0
 20
133.5
 30
0.0
 11
195.0
 21
133.5
 31
0.0
  0
LINE
  5
E0A
330
6B
100
AcDbEntity
  8
0
 62
     3
100
AcDbLine
 10
109.0
 20
128.5
 30
0.0
 11
195.0
 21
128.5
 31
0.0
  0
LINE
  5
E0B
330
6B
100
AcDbEntity
  8
0
 62
     7
100
AcDbLine
 10
109.0
 20
123.5
 30
0.0
 11
195.0
 21
123.5
 31
0.0
  0
LINE
  5
E0C
330
6B
100
AcDbEntity
  8
0
 62
     3
100
AcDbLine
 10
109.0
 20
118.5
 30
0.0
 11
195.0
 21
118.5
 31
0.0
  0
LINE
  5
E0D
330
6B
100
AcDbEntity
  8
0
 62
     7
100
AcDbLine
 10
181.0
 20
118.5
 30
0.0
 11
181.0
 21
133.5
 31
0.0
  0
LINE
  5
E0E
330
6B
100
AcDbEntity
  8
0
 62
     7
100
AcDbLine
 10
137.0
 20
118.5
 30
0.0
 11
137.0
 21
133.5
 31
0.0
  0
LINE
  5
E0F
330
6B
100
AcDbEntity
  8
0
 62
     7
100
AcDbLine
 10
119.0
 20
118.5
 30
0.0
 11
119.0
 21
133.5
 31
0.0
  0
LINE
  5
E10
330
6B
100
AcDbEntity
  8
0
 62
     3
100
AcDbLine
 10
109.0
 20
118.5
 30
0.0
 11
109.0
 21
138.5
 31
0.0
  0
LINE
  5
F12
330
6B
100
AcDbEntity
  8
0
 62
     3
100
AcDbLine
 10
-207.4019237900002
 20
4.944638950000012
 30
0.0
 11
-210.0000000000001
 21
3.444638950000011
 31
0.0
  0
LINE
  5
F13
330
6B
100
AcDbEntity
  8
0
 62
     3
100
AcDbLine
 10
-207.4019237900002
 20
4.944638950000012
 30
0.0
 11
-210.0000000000001
 21
6.444638950000013
 31
0.0
  0
LINE
  5
F14
330
6B
100
AcDbEntity
  8
0
 62
     3
100
AcDbLine
 10
-210.0000000000001
 20
3.444638950000011
 30
0.0
 11
-210.0000000000001
 21
6.444638950000013
 31
0.0
  0
TEXT
  5
1027
330
6B
100
AcDbEntity
  8
0
100
AcDbText
 10
120.5
 20
124.0
 30
0.0
 40
2.5
  1
'15.06.30
  7
高2.5
100
AcDbText
  0
TEXT
  5
1028
330
6B
100
AcDbEntity
  8
0
100
AcDbText
 10
138.5
 20
124.0
 30
0.0
 40
2.5
  1
定格電流変更
  7
高2.5
100
AcDbText
  0
TEXT
  5
1029
330
6B
100
AcDbEntity
  8
0
100
AcDbText
 10
182.4999999999999
 20
123.9999999999995
 30
0.0
 40
2.5
  1
今村
  7
高2.5
100
AcDbText
  0
LINE
  5
1086
330
6B
100
AcDbEntity
  8
0
 62
     3
100
AcDbLine
 10
63.02496899999999
 20
25.42271400000001
 30
0.0
 11
64.18952
 21
24.191762
 31
0.0
  0
LINE
  5
1087
330
6B
100
AcDbEntity
  8
0
 62
     3
100
AcDbLine
 10
64.18952
 20
24.191762
 30
0.0
 11
65.540313
 21
23.185237
 31
0.0
  0
LINE
  5
1088
330
6B
100
AcDbEntity
  8
0
 62
     3
100
AcDbLine
 10
65.540313
 20
23.185237
 30
0.0
 11
66.784435
 21
22.722074
 31
0.0
  0
LINE
  5
1089
330
6B
100
AcDbEntity
  8
0
 62
     3
100
AcDbLine
 10
66.784435
 20
22.722074
 30
0.0
 11
68.093183
 21
22.734028
 31
0.0
  0
LINE
  5
108A
330
6B
100
AcDbEntity
  8
0
 62
     3
100
AcDbLine
 10
68.093183
 20
22.734028
 30
0.0
 11
69.1693
 21
23.263302
 31
0.0
  0
LINE
  5
108B
330
6B
100
AcDbEntity
  8
0
 62
     3
100
AcDbLine
 10
69.1693
 20
23.263302
 30
0.0
 11
69.925872
 21
24.157684
 31
0.0
  0
LINE
  5
108C
330
6B
100
AcDbEntity
  8
0
 62
     3
100
AcDbLine
 10
69.925872
 20
24.157684
 30
0.0
 11
70.202825
 21
25.105787
 31
0.0
  0
LINE
  5
108D
330
6B
100
AcDbEntity
  8
0
 62
     3
100
AcDbLine
 10
70.202825
 20
25.105787
 30
0.0
 11
70.30784699999999
 21
26.146345
 31
0.0
  0
LINE
  5
108E
330
6B
100
AcDbEntity
  8
0
 62
     3
100
AcDbLine
 10
70.30784699999999
 20
26.146345
 30
0.0
 11
70.39035
 21
27.168366
 31
0.0
  0
LINE
  5
108F
330
6B
100
AcDbEntity
  8
0
 62
     3
100
AcDbLine
 10
70.39035
 20
27.168366
 30
0.0
 11
70.20359899999999
 21
28.082484
 31
0.0
  0
LINE
  5
1090
330
6B
100
AcDbEntity
  8
0
 62
     3
100
AcDbLine
 10
70.20359899999999
 20
28.082484
 30
0.0
 11
69.79585400000001
 21
28.566122
 31
0.0
  0
LINE
  5
1091
330
6B
100
AcDbEntity
  8
0
 62
     3
100
AcDbLine
 10
69.79585400000001
 20
28.566122
 30
0.0
 11
69.239906
 21
28.942726
 31
0.0
  0
LINE
  5
1092
330
6B
100
AcDbEntity
  8
0
 62
     3
100
AcDbLine
 10
69.239906
 20
28.942726
 30
0.0
 11
67.908839
 21
29.456946
 31
0.0
  0
LINE
  5
1093
330
6B
100
AcDbEntity
  8
0
 62
     3
100
AcDbLine
 10
67.908839
 20
29.456946
 30
0.0
 11
66.524969
 21
29.732937
 31
0.0
  0
LINE
  5
1094
330
6B
100
AcDbEntity
  8
0
100
AcDbLine
 10
-31.252736
 20
61.47254499999998
 30
0.0
 11
-31.555931
 21
61.803729
 31
0.0
  0
LINE
  5
1095
330
6B
100
AcDbEntity
  8
0
100
AcDbLine
 10
-31.555931
 20
61.803729
 30
0.0
 11
-31.887756
 21
62.11906800000001
 31
0.0
  0
LINE
  5
1096
330
6B
100
AcDbEntity
  8
0
100
AcDbLine
 10
-31.887756
 20
62.11906800000001
 30
0.0
 11
-32.281564
 21
62.399655
 31
0.0
  0
LINE
  5
1097
330
6B
100
AcDbEntity
  8
0
100
AcDbLine
 10
-32.281564
 20
62.399655
 30
0.0
 11
-32.712991
 21
62.559822
 31
0.0
  0
LINE
  5
1098
330
6B
100
AcDbEntity
  8
0
100
AcDbLine
 10
-32.712991
 20
62.559822
 30
0.0
 11
-33.361142
 21
62.48734
 31
0.0
  0
LINE
  5
1099
330
6B
100
AcDbEntity
  8
0
100
AcDbLine
 10
-33.361142
 20
62.48734
 30
0.0
 11
-34.017482
 21
62.224395
 31
0.0
  0
LINE
  5
109A
330
6B
100
AcDbEntity
  8
0
100
AcDbLine
 10
-34.017482
 20
62.224395
 30
0.0
 11
-34.870967
 21
61.864791
 31
0.0
  0
LINE
  5
109B
330
6B
100
AcDbEntity
  8
0
100
AcDbLine
 10
-34.870967
 20
61.864791
 30
0.0
 11
-35.633628
 21
61.416325
 31
0.0
  0
LINE
  5
109C
330
6B
100
AcDbEntity
  8
0
100
AcDbLine
 10
-35.633628
 20
61.416325
 30
0.0
 11
-36.190538
 21
60.885018
 31
0.0
  0
LINE
  5
109D
330
6B
100
AcDbEntity
  8
0
100
AcDbLine
 10
-36.190538
 20
60.885018
 30
0.0
 11
-36.764915
 21
60.370999
 31
0.0
  0
LINE
  5
109E
330
6B
100
AcDbEntity
  8
0
100
AcDbLine
 10
-36.764915
 20
60.370999
 30
0.0
 11
-37.511961
 21
60.01891999999998
 31
0.0
  0
LINE
  5
109F
330
6B
100
AcDbEntity
  8
0
100
AcDbLine
 10
-37.511961
 20
60.01891999999998
 30
0.0
 11
-38.33842199999999
 21
59.843278
 31
0.0
  0
LINE
  5
10A0
330
6B
100
AcDbEntity
  8
0
100
AcDbLine
 10
-38.33842199999999
 20
59.843278
 30
0.0
 11
-39.16612199999999
 21
59.75828299999999
 31
0.0
  0
LINE
  5
10A1
330
6B
100
AcDbEntity
  8
0
100
AcDbLine
 10
-39.16612199999999
 20
59.75828299999999
 30
0.0
 11
-39.988236
 21
59.682246
 31
0.0
  0
LINE
  5
10A2
330
6B
100
AcDbEntity
  8
0
100
AcDbLine
 10
-39.988236
 20
59.682246
 30
0.0
 11
-40.035832
 21
59.67645699999999
 31
0.0
  0
LINE
  5
10A3
330
6B
100
AcDbEntity
  8
0
100
AcDbLine
 10
-40.035832
 20
59.67645699999999
 30
0.0
 11
-40.08343499999996
 21
59.67054799999999
 31
0.0
  0
LINE
  5
10A4
330
6B
100
AcDbEntity
  8
0
100
AcDbLine
 10
-29.906396
 20
62.16742199999998
 30
0.0
 11
-30.385818
 21
62.749033
 31
0.0
  0
LINE
  5
10A5
330
6B
100
AcDbEntity
  8
0
100
AcDbLine
 10
-30.385818
 20
62.749033
 30
0.0
 11
-30.919463
 21
63.302446
 31
0.0
  0
LINE
  5
10A6
330
6B
100
AcDbEntity
  8
0
100
AcDbLine
 10
-30.919463
 20
63.302446
 30
0.0
 11
-31.676467
 21
63.86366500000001
 31
0.0
  0
LINE
  5
10A7
330
6B
100
AcDbEntity
  8
0
100
AcDbLine
 10
-31.676467
 20
63.86366500000001
 30
0.0
 11
-32.521208
 21
64.15792900000001
 31
0.0
  0
LINE
  5
10A8
330
6B
100
AcDbEntity
  8
0
100
AcDbLine
 10
-32.521208
 20
64.15792900000001
 30
0.0
 11
-33.529131
 21
64.027731
 31
0.0
  0
LINE
  5
10A9
330
6B
100
AcDbEntity
  8
0
100
AcDbLine
 10
-33.529131
 20
64.027731
 30
0.0
 11
-34.545574
 21
63.637399
 31
0.0
  0
LINE
  5
10AA
330
6B
100
AcDbEntity
  8
0
100
AcDbLine
 10
-34.545574
 20
63.637399
 30
0.0
 11
-35.579578
 21
63.21934999999999
 31
0.0
  0
LINE
  5
10AB
330
6B
100
AcDbEntity
  8
0
100
AcDbLine
 10
-35.579578
 20
63.21934999999999
 30
0.0
 11
-36.495072
 21
62.662654
 31
0.0
  0
LINE
  5
10AC
330
6B
100
AcDbEntity
  8
0
100
AcDbLine
 10
-36.495072
 20
62.662654
 30
0.0
 11
-37.006551
 21
62.156176
 31
0.0
  0
LINE
  5
10AD
330
6B
100
AcDbEntity
  8
0
100
AcDbLine
 10
-37.006551
 20
62.156176
 30
0.0
 11
-37.546731
 21
61.690906
 31
0.0
  0
LINE
  5
10AE
330
6B
100
AcDbEntity
  8
0
100
AcDbLine
 10
-37.546731
 20
61.690906
 30
0.0
 11
-38.075656
 21
61.45294699999999
 31
0.0
  0
LINE
  5
10AF
330
6B
100
AcDbEntity
  8
0
100
AcDbLine
 10
-38.075656
 20
61.45294699999999
 30
0.0
 11
-38.653796
 21
61.31961999999999
 31
0.0
  0
LINE
  5
10B0
330
6B
100
AcDbEntity
  8
0
100
AcDbLine
 10
-38.653796
 20
61.31961999999999
 30
0.0
 11
-39.404378
 21
61.226013
 31
0.0
  0
LINE
  5
10B1
330
6B
100
AcDbEntity
  8
0
100
AcDbLine
 10
-39.404378
 20
61.226013
 30
0.0
 11
-40.151296
 21
61.17365799999999
 31
0.0
  0
LINE
  5
10B2
330
6B
100
AcDbEntity
  8
0
100
AcDbLine
 10
-124.763931
 20
62.472545
 30
0.0
 11
-125.067126
 21
62.803729
 31
0.0
  0
LINE
  5
10B3
330
6B
100
AcDbEntity
  8
0
100
AcDbLine
 10
-125.067126
 20
62.803729
 30
0.0
 11
-125.398951
 21
63.119068
 31
0.0
  0
LINE
  5
10B4
330
6B
100
AcDbEntity
  8
0
100
AcDbLine
 10
-125.398951
 20
63.119068
 30
0.0
 11
-125.792759
 21
63.399655
 31
0.0
  0
LINE
  5
10B5
330
6B
100
AcDbEntity
  8
0
100
AcDbLine
 10
-125.792759
 20
63.399655
 30
0.0
 11
-126.224186
 21
63.55982199999999
 31
0.0
  0
LINE
  5
10B6
330
6B
100
AcDbEntity
  8
0
100
AcDbLine
 10
-126.224186
 20
63.55982199999999
 30
0.0
 11
-126.872337
 21
63.48734
 31
0.0
  0
LINE
  5
10B7
330
6B
100
AcDbEntity
  8
0
100
AcDbLine
 10
-126.872337
 20
63.48734
 30
0.0
 11
-127.528677
 21
63.22439499999997
 31
0.0
  0
LINE
  5
10B8
330
6B
100
AcDbEntity
  8
0
100
AcDbLine
 10
-127.528677
 20
63.22439499999997
 30
0.0
 11
-128.382162
 21
62.86479100000001
 31
0.0
  0
LINE
  5
10B9
330
6B
100
AcDbEntity
  8
0
100
AcDbLine
 10
-128.382162
 20
62.86479100000001
 30
0.0
 11
-129.144823
 21
62.416325
 31
0.0
  0
LINE
  5
10BA
330
6B
100
AcDbEntity
  8
0
100
AcDbLine
 10
-129.144823
 20
62.416325
 30
0.0
 11
-129.701733
 21
61.885018
 31
0.0
  0
LINE
  5
10BB
330
6B
100
AcDbEntity
  8
0
100
AcDbLine
 10
-129.701733
 20
61.885018
 30
0.0
 11
-130.27611
 21
61.37099899999999
 31
0.0
  0
LINE
  5
10BC
330
6B
100
AcDbEntity
  8
0
100
AcDbLine
 10
-130.27611
 20
61.37099899999999
 30
0.0
 11
-131.023156
 21
61.01891999999999
 31
0.0
  0
LINE
  5
10BD
330
6B
100
AcDbEntity
  8
0
100
AcDbLine
 10
-131.023156
 20
61.01891999999999
 30
0.0
 11
-131.849617
 21
60.843278
 31
0.0
  0
LINE
  5
10BE
330
6B
100
AcDbEntity
  8
0
100
AcDbLine
 10
-131.849617
 20
60.843278
 30
0.0
 11
-132.677317
 21
60.758283
 31
0.0
  0
LINE
  5
10BF
330
6B
100
AcDbEntity
  8
0
100
AcDbLine
 10
-132.677317
 20
60.758283
 30
0.0
 11
-133.499431
 21
60.682246
 31
0.0
  0
LINE
  5
10C0
330
6B
100
AcDbEntity
  8
0
100
AcDbLine
 10
-133.499431
 20
60.682246
 30
0.0
 11
-133.547027
 21
60.67645699999999
 31
0.0
  0
LINE
  5
10C1
330
6B
100
AcDbEntity
  8
0
100
AcDbLine
 10
-133.547027
 20
60.67645699999999
 30
0.0
 11
-133.59463
 21
60.670548
 31
0.0
  0
LINE
  5
10C2
330
6B
100
AcDbEntity
  8
0
100
AcDbLine
 10
-123.417591
 20
63.167422
 30
0.0
 11
-123.897013
 21
63.74903299999999
 31
0.0
  0
LINE
  5
10C3
330
6B
100
AcDbEntity
  8
0
100
AcDbLine
 10
-123.897013
 20
63.74903299999999
 30
0.0
 11
-124.430658
 21
64.302446
 31
0.0
  0
LINE
  5
10C4
330
6B
100
AcDbEntity
  8
0
100
AcDbLine
 10
-124.430658
 20
64.302446
 30
0.0
 11
-125.187662
 21
64.86366499999999
 31
0.0
  0
LINE
  5
10C5
330
6B
100
AcDbEntity
  8
0
100
AcDbLine
 10
-125.187662
 20
64.86366499999999
 30
0.0
 11
-126.032403
 21
65.157929
 31
0.0
  0
LINE
  5
10C6
330
6B
100
AcDbEntity
  8
0
100
AcDbLine
 10
-126.032403
 20
65.157929
 30
0.0
 11
-127.040327
 21
65.027731
 31
0.0
  0
LINE
  5
10C7
330
6B
100
AcDbEntity
  8
0
100
AcDbLine
 10
-127.040327
 20
65.027731
 30
0.0
 11
-128.056769
 21
64.637399
 31
0.0
  0
LINE
  5
10C8
330
6B
100
AcDbEntity
  8
0
100
AcDbLine
 10
-128.056769
 20
64.637399
 30
0.0
 11
-129.090773
 21
64.21935000000001
 31
0.0
  0
LINE
  5
10C9
330
6B
100
AcDbEntity
  8
0
100
AcDbLine
 10
-129.090773
 20
64.21935000000001
 30
0.0
 11
-130.0062669999999
 21
63.662654
 31
0.0
  0
LINE
  5
10CA
330
6B
100
AcDbEntity
  8
0
100
AcDbLine
 10
-130.0062669999999
 20
63.662654
 30
0.0
 11
-130.517746
 21
63.156176
 31
0.0
  0
LINE
  5
10CB
330
6B
100
AcDbEntity
  8
0
100
AcDbLine
 10
-130.517746
 20
63.156176
 30
0.0
 11
-131.057926
 21
62.69090600000001
 31
0.0
  0
LINE
  5
10CC
330
6B
100
AcDbEntity
  8
0
100
AcDbLine
 10
-131.057926
 20
62.69090600000001
 30
0.0
 11
-131.586851
 21
62.45294699999998
 31
0.0
  0
LINE
  5
10CD
330
6B
100
AcDbEntity
  8
0
100
AcDbLine
 10
-131.586851
 20
62.45294699999998
 30
0.0
 11
-132.164991
 21
62.31961999999999
 31
0.0
  0
LINE
  5
10CE
330
6B
100
AcDbEntity
  8
0
100
AcDbLine
 10
-132.164991
 20
62.31961999999999
 30
0.0
 11
-132.915573
 21
62.226013
 31
0.0
  0
LINE
  5
10CF
330
6B
100
AcDbEntity
  8
0
100
AcDbLine
 10
-132.915573
 20
62.226013
 30
0.0
 11
-133.662491
 21
62.17365799999999
 31
0.0
  0
LINE
  5
10D0
330
6B
100
AcDbEntity
  8
0
100
AcDbLine
 10
-123.417591
 20
63.167422
 30
0.0
 11
-123.139816
 21
62.846414
 31
0.0
  0
LINE
  5
10D1
330
6B
100
AcDbEntity
  8
0
100
AcDbLine
 10
-123.139816
 20
62.846414
 30
0.0
 11
-122.918861
 21
62.496898
 31
0.0
  0
LINE
  5
10D2
330
6B
100
AcDbEntity
  8
0
100
AcDbLine
 10
-122.918861
 20
62.496898
 30
0.0
 11
-122.805511
 21
62.161636
 31
0.0
  0
LINE
  5
10D3
330
6B
100
AcDbEntity
  8
0
100
AcDbLine
 10
-122.805511
 20
62.161636
 30
0.0
 11
-122.735196
 21
61.80815500000001
 31
0.0
  0
LINE
  5
10D4
330
6B
100
AcDbEntity
  8
0
100
AcDbLine
 10
-122.735196
 20
61.80815500000001
 30
0.0
 11
-122.682051
 21
61.486414
 31
0.0
  0
LINE
  5
10D5
330
6B
100
AcDbEntity
  8
0
100
AcDbLine
 10
-122.682051
 20
61.486414
 30
0.0
 11
-122.643364
 21
61.16532900000001
 31
0.0
  0
LINE
  5
10D6
330
6B
100
AcDbEntity
  8
0
100
AcDbLine
 10
-122.643364
 20
61.16532900000001
 30
0.0
 11
-122.626151
 21
60.70450000000001
 31
0.0
  0
LINE
  5
10D7
330
6B
100
AcDbEntity
  8
0
100
AcDbLine
 10
-122.626151
 20
60.70450000000001
 30
0.0
 11
-122.635402
 21
60.240756
 31
0.0
  0
LINE
  5
10D8
330
6B
100
AcDbEntity
  8
0
100
AcDbLine
 10
-123.860151
 20
64.42584899999999
 30
0.0
 11
-123.083786
 21
64.65782199999999
 31
0.0
  0
LINE
  5
10D9
330
6B
100
AcDbEntity
  8
0
100
AcDbLine
 10
-123.083786
 20
64.65782199999999
 30
0.0
 11
-122.341296
 21
64.670052
 31
0.0
  0
LINE
  5
10DA
330
6B
100
AcDbEntity
  8
0
100
AcDbLine
 10
-122.341296
 20
64.670052
 30
0.0
 11
-121.752988
 21
64.414479
 31
0.0
  0
LINE
  5
10DB
330
6B
100
AcDbEntity
  8
0
100
AcDbLine
 10
-121.752988
 20
64.414479
 30
0.0
 11
-121.161927
 21
64.121068
 31
0.0
  0
LINE
  5
10DC
330
6B
100
AcDbEntity
  8
0
100
AcDbLine
 10
-121.161927
 20
64.121068
 30
0.0
 11
-120.46969
 21
63.99917199999999
 31
0.0
  0
LINE
  5
10DD
330
6B
100
AcDbEntity
  8
0
100
AcDbLine
 10
-120.46969
 20
63.99917199999999
 30
0.0
 11
-119.745297
 21
64.019474
 31
0.0
  0
LINE
  5
10DE
330
6B
100
AcDbEntity
  8
0
 62
     3
100
AcDbLine
 10
76.649969
 20
43.118701
 30
0.0
 11
77.429552
 21
42.854966
 31
0.0
  0
LINE
  5
10DF
330
6B
100
AcDbEntity
  8
0
 62
     3
100
AcDbLine
 10
77.429552
 20
42.854966
 30
0.0
 11
78.17981800000002
 21
42.513381
 31
0.0
  0
LINE
  5
10E0
330
6B
100
AcDbEntity
  8
0
 62
     3
100
AcDbLine
 10
78.17981800000002
 20
42.513381
 30
0.0
 11
78.57122199999998
 21
42.25997399999999
 31
0.0
  0
LINE
  5
10E1
330
6B
100
AcDbEntity
  8
0
 62
     3
100
AcDbLine
 10
78.57122199999998
 20
42.25997399999999
 30
0.0
 11
78.908727
 21
41.94967499999999
 31
0.0
  0
LINE
  5
10E2
330
6B
100
AcDbEntity
  8
0
 62
     3
100
AcDbLine
 10
78.908727
 20
41.94967499999999
 30
0.0
 11
79.465088
 21
40.912773
 31
0.0
  0
LINE
  5
10E3
330
6B
100
AcDbEntity
  8
0
 62
     3
100
AcDbLine
 10
79.465088
 20
40.912773
 30
0.0
 11
79.92642299999999
 21
39.802046
 31
0.0
  0
LINE
  5
10E4
330
6B
100
AcDbEntity
  8
0
 62
     3
100
AcDbLine
 10
79.92642299999999
 20
39.802046
 30
0.0
 11
80.55666499999999
 21
38.948819
 31
0.0
  0
LINE
  5
10E5
330
6B
100
AcDbEntity
  8
0
 62
     3
100
AcDbLine
 10
80.55666499999999
 20
38.948819
 30
0.0
 11
81.178682
 21
38.068055
 31
0.0
  0
LINE
  5
10E6
330
6B
100
AcDbEntity
  8
0
 62
     3
100
AcDbLine
 10
81.178682
 20
38.068055
 30
0.0
 11
81.524294
 21
36.621985
 31
0.0
  0
LINE
  5
10E7
330
6B
100
AcDbEntity
  8
0
 62
     3
100
AcDbLine
 10
81.524294
 20
36.621985
 30
0.0
 11
81.138326
 21
35.248267
 31
0.0
  0
LINE
  5
10E8
330
6B
100
AcDbEntity
  8
0
 62
     3
100
AcDbLine
 10
81.138326
 20
35.248267
 30
0.0
 11
80.59386700000002
 21
34.703415
 31
0.0
  0
LINE
  5
10E9
330
6B
100
AcDbEntity
  8
0
 62
     3
100
AcDbLine
 10
80.59386700000002
 20
34.703415
 30
0.0
 11
79.92642299999999
 21
34.284798
 31
0.0
  0
LINE
  5
10EA
330
6B
100
AcDbEntity
  8
0
 62
     3
100
AcDbLine
 10
79.92642299999999
 20
34.284798
 30
0.0
 11
79.06841700000002
 21
33.826674
 31
0.0
  0
LINE
  5
10EB
330
6B
100
AcDbEntity
  8
0
 62
     3
100
AcDbLine
 10
79.06841700000002
 20
33.826674
 30
0.0
 11
78.220174
 21
33.30745800000001
 31
0.0
  0
LINE
  5
10EC
330
6B
100
AcDbEntity
  8
0
 62
     3
100
AcDbLine
 10
78.220174
 20
33.30745800000001
 30
0.0
 11
77.804056
 21
32.999145
 31
0.0
  0
LINE
  5
10ED
330
6B
100
AcDbEntity
  8
0
 62
     3
100
AcDbLine
 10
77.804056
 20
32.999145
 30
0.0
 11
77.42190699999998
 21
32.743752
 31
0.0
  0
LINE
  5
10EE
330
6B
100
AcDbEntity
  8
0
 62
     3
100
AcDbLine
 10
77.42190699999998
 20
32.743752
 30
0.0
 11
76.968141
 21
32.626041
 31
0.0
  0
LINE
  5
10EF
330
6B
100
AcDbEntity
  8
0
 62
     3
100
AcDbLine
 10
76.968141
 20
32.626041
 30
0.0
 11
76.649969
 21
32.822265
 31
0.0
  0
LINE
  5
10F0
330
6B
100
AcDbEntity
  8
0
100
AcDbLine
 10
-11.892096
 20
1.422551
 30
0.0
 11
0.9218639999999908
 21
1.422550999999996
 31
0.0
  0
LINE
  5
10F1
330
6B
100
AcDbEntity
  8
0
100
AcDbLine
 10
-9.874207
 20
38.922539
 30
0.0
 11
0.9218639999999991
 21
38.922539
 31
0.0
  0
LINE
  5
10F2
330
6B
100
AcDbEntity
  8
0
100
AcDbLine
 10
-0.3281360000000078
 20
3.922550999999996
 30
0.0
 11
-0.3281360000000006
 21
36.422539
 31
0.0
  0
LINE
  5
10F6
330
6B
100
AcDbEntity
  8
0
100
AcDbLine
 10
-53.25095699999999
 20
71.39753899999999
 30
0.0
 11
-53.25095699999999
 21
84.695025
 31
0.0
  0
LINE
  5
10F7
330
6B
100
AcDbEntity
  8
0
100
AcDbLine
 10
-26.996457
 20
71.39753899999999
 30
0.0
 11
-26.996457
 21
84.695025
 31
0.0
  0
LINE
  5
10F8
330
6B
100
AcDbEntity
  8
0
100
AcDbLine
 10
-50.75095699999999
 20
83.445025
 30
0.0
 11
-29.496457
 21
83.445025
 31
0.0
  0
LINE
  5
10FC
330
6B
100
AcDbEntity
  8
0
100
AcDbLine
 10
-69.49870699999999
 20
1.172551
 30
0.0
 11
-69.49870699999999
 21
-8.292944
 31
0.0
  0
LINE
  5
10FD
330
6B
100
AcDbEntity
  8
0
100
AcDbLine
 10
-10.749707
 20
1.172551
 30
0.0
 11
-10.749707
 21
-8.292944
 31
0.0
  0
LINE
  5
10FE
330
6B
100
AcDbEntity
  8
0
100
AcDbLine
 10
-66.99870699999999
 20
-7.042944
 30
0.0
 11
-13.249707
 21
-7.042944
 31
0.0
  0
LINE
  5
1102
330
6B
100
AcDbEntity
  8
0
100
AcDbLine
 10
50.011786
 20
9.710214
 30
0.0
 11
50.011786
 21
-15.702066
 31
0.0
  0
LINE
  5
1103
330
6B
100
AcDbEntity
  8
0
100
AcDbLine
 10
122.549969
 20
9.710214
 30
0.0
 11
122.549969
 21
-15.702066
 31
0.0
  0
LINE
  5
1104
330
6B
100
AcDbEntity
  8
0
100
AcDbLine
 10
52.511786
 20
-14.452066
 30
0.0
 11
120.049969
 21
-14.452066
 31
0.0
  0
LINE
  5
1108
330
6B
100
AcDbEntity
  8
0
100
AcDbLine
 10
76.649969
 20
9.173289
 30
0.0
 11
76.649969
 21
-9.247149
 31
0.0
  0
LINE
  5
1109
330
6B
100
AcDbEntity
  8
0
100
AcDbLine
 10
117.149969
 20
9.173289
 30
0.0
 11
117.149969
 21
-9.247149
 31
0.0
  0
LINE
  5
110A
330
6B
100
AcDbEntity
  8
0
100
AcDbLine
 10
79.149969
 20
-7.997149
 30
0.0
 11
114.649969
 21
-7.997149
 31
0.0
  0
LINE
  5
110E
330
6B
100
AcDbEntity
  8
0
100
AcDbLine
 10
75.649969
 20
19.298001
 30
0.0
 11
28.87655199999999
 21
19.29800100000001
 31
0.0
  0
LINE
  5
110F
330
6B
100
AcDbEntity
  8
0
100
AcDbLine
 10
75.649969
 20
58.548001
 30
0.0
 11
28.87655200000001
 21
58.54800100000001
 31
0.0
  0
LINE
  5
1110
330
6B
100
AcDbEntity
  8
0
100
AcDbLine
 10
30.12655199999999
 20
21.79800100000001
 30
0.0
 11
30.126552
 21
56.04800100000001
 31
0.0
  0
LINE
  5
1114
330
6B
100
AcDbEntity
  8
0
100
AcDbLine
 10
-11.880317
 20
1.422551
 30
0.0
 11
9.76676599999998
 21
1.422550999999993
 31
0.0
  0
LINE
  5
1115
330
6B
100
AcDbEntity
  8
0
100
AcDbLine
 10
-32.021457
 20
76.422539
 30
0.0
 11
9.766766
 21
76.42253899999999
 31
0.0
  0
LINE
  5
1116
330
6B
100
AcDbEntity
  8
0
100
AcDbLine
 10
8.516765999999982
 20
3.922550999999994
 30
0.0
 11
8.516765999999998
 21
73.92253899999999
 31
0.0
  0
LINE
  5
111A
330
6B
100
AcDbEntity
  8
0
100
AcDbLine
 10
75.14996899999999
 20
8.922713999999997
 30
0.0
 11
19.33488299999998
 21
8.922714000000013
 31
0.0
  0
LINE
  5
111B
330
6B
100
AcDbEntity
  8
0
100
AcDbLine
 10
75.14996899999999
 20
68.922714
 30
0.0
 11
19.334883
 21
68.92271400000002
 31
0.0
  0
LINE
  5
111C
330
6B
100
AcDbEntity
  8
0
100
AcDbLine
 10
20.58488299999999
 20
11.42271400000001
 30
0.0
 11
20.584883
 21
66.42271400000002
 31
0.0
  0
LINE
  5
1120
330
6B
100
AcDbEntity
  8
0
  6
Continuous
100
AcDbLine
 10
-132.3626731189764
 20
60.77729530143692
 30
0.0
 11
-123.020990762047
 21
86.97351939712616
 31
0.0
1001
ACAD
1000
DSTYLE
1002
{
1070
   147
1040
0.625
1070
    77
1070
     0
1002
}
  0
LINE
  5
1121
330
6B
100
AcDbEntity
  8
0
  6
ByBlock
 62
     0
370
    -2
100
AcDbLine
 10
-131.7317185227627
 20
60.55229427083254
 30
0.0
 11
-133.202389
 21
58.422539
 31
0.0
  0
LINE
  5
1122
330
6B
100
AcDbEntity
  8
0
  6
ByBlock
 62
     0
370
    -2
100
AcDbLine
 10
-133.202389
 20
58.422539
 30
0.0
 11
-132.9936277151901
 21
61.00229633204129
 31
0.0
  0
LINE
  5
1123
330
6B
100
AcDbEntity
  8
0
  6
ByBlock
 62
     0
370
    -2
100
AcDbLine
 10
-133.202389
 20
58.422539
 30
0.0
 11
-132.3626731189764
 21
60.77729530143692
 31
0.0
  0
LINE
  5
1124
330
6B
100
AcDbEntity
  8
0
  6
Continuous
100
AcDbLine
 10
-120.1292175694633
 20
56.7111177929948
 30
0.0
 11
-106.7660198610734
 21
87.10587441401036
 31
0.0
1001
ACAD
1000
DSTYLE
1002
{
1070
   147
1040
0.625
1070
    77
1070
     0
1002
}
  0
LINE
  5
1125
330
6B
100
AcDbEntity
  8
0
  6
ByBlock
 62
     0
370
    -2
100
AcDbLine
 10
-119.5159951704591
 20
56.44151168101693
 30
0.0
 11
-121.135402
 21
54.422539
 31
0.0
  0
LINE
  5
1126
330
6B
100
AcDbEntity
  8
0
  6
ByBlock
 62
     0
370
    -2
100
AcDbLine
 10
-121.135402
 20
54.422539
 30
0.0
 11
-120.7424399684674
 21
56.98072390497268
 31
0.0
  0
LINE
  5
1127
330
6B
100
AcDbEntity
  8
0
  6
ByBlock
 62
     0
370
    -2
100
AcDbLine
 10
-121.135402
 20
54.422539
 30
0.0
 11
-120.1292175694633
 21
56.7111177929948
 31
0.0
  0
LINE
  5
1128
330
6B
100
AcDbEntity
  8
0
  6
Continuous
100
AcDbLine
 10
-115.5743706730579
 20
47.67048645889833
 30
0.0
 11
-93.99259522290035
 21
87.29215523742228
 31
0.0
1001
ACAD
1000
DSTYLE
1002
{
1070
   147
1040
0.625
1070
    77
1070
     0
1002
}
  0
LINE
  5
1129
330
6B
100
AcDbEntity
  8
0
  6
ByBlock
 62
     0
370
    -2
100
AcDbLine
 10
-114.9861051542299
 20
47.35006042123237
 30
0.0
 11
-116.7702177845081
 21
45.47504807760947
 31
0.0
  0
LINE
  5
112A
330
6B
100
AcDbEntity
  8
0
  6
ByBlock
 62
     0
370
    -2
100
AcDbLine
 10
-116.7702177845081
 20
45.47504807760947
 30
0.0
 11
-116.1626361918859
 21
47.9909124965643
 31
0.0
  0
LINE
  5
112B
330
6B
100
AcDbEntity
  8
0
  6
ByBlock
 62
     0
370
    -2
100
AcDbLine
 10
-116.7702177845081
 20
45.47504807760947
 30
0.0
 11
-115.5743706730579
 21
47.67048645889833
 31
0.0
  0
LINE
  5
112C
330
6B
100
AcDbEntity
  8
0
  6
Continuous
100
AcDbLine
 10
-58.38678167147802
 20
59.03082316222544
 30
0.0
 11
-65.07442421941703
 21
86.82180323792222
 31
0.0
1001
ACAD
1000
DSTYLE
1002
{
1070
   147
1040
0.625
1070
    77
1070
     0
1002
}
  0
LINE
  5
112D
330
6B
100
AcDbEntity
  8
0
  6
ByBlock
 62
     0
370
    -2
100
AcDbLine
 10
-57.73550097869303
 20
59.18754784267416
 30
0.0
 11
-57.80187678118654
 21
56.60020878118654
 31
0.0
  0
LINE
  5
112E
330
6B
100
AcDbEntity
  8
0
  6
ByBlock
 62
     0
370
    -2
100
AcDbLine
 10
-57.80187678118654
 20
56.60020878118654
 30
0.0
 11
-59.03806236426301
 21
58.87409848177673
 31
0.0
  0
LINE
  5
112F
330
6B
100
AcDbEntity
  8
0
  6
ByBlock
 62
     0
370
    -2
100
AcDbLine
 10
-57.80187678118654
 20
56.60020878118654
 30
0.0
 11
-58.38678167147802
 21
59.03082316222544
 31
0.0
  0
LINE
  5
1130
330
6B
100
AcDbEntity
  8
0
  6
Continuous
100
AcDbLine
 10
38.52778207416353
 20
27.54225824873836
 30
0.0
 11
34.60919085167296
 21
86.6939675025233
 31
0.0
1001
ACAD
1000
DSTYLE
1002
{
1070
   147
1040
0.625
1070
    77
1070
     0
1002
}
  0
LINE
  5
1131
330
6B
100
AcDbEntity
  8
0
  6
ByBlock
 62
     0
370
    -2
100
AcDbLine
 10
39.19618949568072
 20
27.58653787291232
 30
0.0
 11
38.693036
 21
25.047726
 31
0.0
  0
LINE
  5
1132
330
6B
100
AcDbEntity
  8
0
  6
ByBlock
 62
     0
370
    -2
100
AcDbLine
 10
38.693036
 20
25.047726
 30
0.0
 11
37.85937465264633
 21
27.4979786245644
 31
0.0
  0
LINE
  5
1133
330
6B
100
AcDbEntity
  8
0
  6
ByBlock
 62
     0
370
    -2
100
AcDbLine
 10
38.693036
 20
25.047726
 30
0.0
 11
38.52778207416353
 21
27.54225824873836
 31
0.0
  0
LINE
  5
1134
330
6B
100
AcDbEntity
  8
0
  6
Continuous
100
AcDbLine
 10
78.48772977836787
 20
43.26339568297878
 30
0.0
 11
85.76997544326427
 21
86.7516926340424
 31
0.0
1001
ACAD
1000
DSTYLE
1002
{
1070
   147
1040
0.625
1070
    77
1070
     0
1002
}
  0
LINE
  5
1135
330
6B
100
AcDbEntity
  8
0
  6
ByBlock
 62
     0
370
    -2
100
AcDbLine
 10
79.14840350425237
 20
43.15276388744889
 30
0.0
 11
78.07484600000002
 21
40.797726
 31
0.0
  0
LINE
  5
1136
330
6B
100
AcDbEntity
  8
0
  6
ByBlock
 62
     0
370
    -2
100
AcDbLine
 10
78.07484600000002
 20
40.797726
 30
0.0
 11
77.8270560524834
 21
43.37402747850867
 31
0.0
  0
LINE
  5
1137
330
6B
100
AcDbEntity
  8
0
  6
ByBlock
 62
     0
370
    -2
100
AcDbLine
 10
78.07484600000002
 20
40.797726
 30
0.0
 11
78.48772977836787
 21
43.26339568297878
 31
0.0
  0
LINE
  5
1138
330
6B
100
AcDbEntity
  8
0
  6
Continuous
100
AcDbLine
 10
96.99974517853503
 20
61.04600914934557
 30
0.0
 11
97.99490664292996
 21
85.96098870130886
 31
0.0
1001
ACAD
1000
DSTYLE
1002
{
1070
   147
1040
0.625
1070
    77
1070
     0
1002
}
  0
LINE
  5
1139
330
6B
100
AcDbEntity
  8
0
  6
ByBlock
 62
     0
370
    -2
100
AcDbLine
 10
97.66908396414402
 20
61.0192742220833
 30
0.0
 11
96.899969
 21
58.548001
 31
0.0
  0
LINE
  5
113A
330
6B
100
AcDbEntity
  8
0
  6
ByBlock
 62
     0
370
    -2
100
AcDbLine
 10
96.899969
 20
58.548001
 30
0.0
 11
96.33040639292602
 21
61.07274407660786
 31
0.0
  0
LINE
  5
113B
330
6B
100
AcDbEntity
  8
0
  6
ByBlock
 62
     0
370
    -2
100
AcDbLine
 10
96.899969
 20
58.548001
 30
0.0
 11
96.99974517853503
 21
61.04600914934557
 31
0.0
  0
LINE
  5
113C
330
6B
100
AcDbEntity
  8
0
  6
Continuous
100
AcDbLine
 10
117.1785765827264
 20
71.2480617615152
 30
0.0
 11
112.4517671282947
 21
86.89662329885765
 31
0.0
1001
ACAD
1000
DSTYLE
1002
{
1070
   147
1040
0.625
1070
    77
1070
     0
1002
}
  0
LINE
  5
113D
330
6B
100
AcDbEntity
  8
0
  6
ByBlock
 62
     0
370
    -2
100
AcDbLine
 10
117.8198332952576
 20
71.44175996721142
 30
0.0
 11
117.9014686468738
 21
68.85485741094403
 31
0.0
  0
LINE
  5
113E
330
6B
100
AcDbEntity
  8
0
  6
ByBlock
 62
     0
370
    -2
100
AcDbLine
 10
117.9014686468738
 20
68.85485741094403
 30
0.0
 11
116.5373198701952
 21
71.05436355581897
 31
0.0
  0
LINE
  5
113F
330
6B
100
AcDbEntity
  8
0
  6
ByBlock
 62
     0
370
    -2
100
AcDbLine
 10
117.9014686468738
 20
68.85485741094403
 30
0.0
 11
117.1785765827264
 21
71.2480617615152
 31
0.0
  0
LINE
  5
1140
330
6B
100
AcDbEntity
  8
0
  6
Continuous
100
AcDbLine
 10
122.574819067667
 20
78.48554392182122
 30
0.0
 11
128.7859938646659
 21
87.55737215635758
 31
0.0
1001
ACAD
1000
DSTYLE
1002
{
1070
   147
1040
0.625
1070
    77
1070
     0
1002
}
  0
LINE
  5
1141
330
6B
100
AcDbEntity
  8
0
  6
ByBlock
 62
     0
370
    -2
100
AcDbLine
 10
123.1275522823891
 20
78.1071061335399
 30
0.0
 11
121.162469
 21
76.422714
 31
0.0
  0
LINE
  5
1142
330
6B
100
AcDbEntity
  8
0
  6
ByBlock
 62
     0
370
    -2
100
AcDbLine
 10
121.162469
 20
76.422714
 30
0.0
 11
122.0220858529449
 21
78.86398171010253
 31
0.0
  0
LINE
  5
1143
330
6B
100
AcDbEntity
  8
0
  6
ByBlock
 62
     0
370
    -2
100
AcDbLine
 10
121.162469
 20
76.422714
 30
0.0
 11
122.574819067667
 21
78.48554392182122
 31
0.0
  0
LINE
  5
1144
330
6B
100
AcDbEntity
  8
0
  6
Continuous
100
AcDbLine
 10
125.0107458532934
 20
43.06649321006442
 30
0.0
 11
133.7853472934131
 21
49.77756057987113
 31
0.0
1001
ACAD
1000
DSTYLE
1002
{
1070
   147
1040
0.625
1070
    77
1070
     0
1002
}
  0
LINE
  5
1145
330
6B
100
AcDbEntity
  8
0
  6
ByBlock
 62
     0
370
    -2
100
AcDbLine
 10
125.417701223851
 20
42.5344062880013
 30
0.0
 11
123.024969
 21
41.547714
 31
0.0
  0
LINE
  5
1146
330
6B
100
AcDbEntity
  8
0
  6
ByBlock
 62
     0
370
    -2
100
AcDbLine
 10
123.024969
 20
41.547714
 30
0.0
 11
124.6037904827359
 21
43.59858013212756
 31
0.0
  0
LINE
  5
1147
330
6B
100
AcDbEntity
  8
0
  6
ByBlock
 62
     0
370
    -2
100
AcDbLine
 10
123.024969
 20
41.547714
 30
0.0
 11
125.0107458532934
 21
43.06649321006442
 31
0.0
  0
LINE
  5
1148
330
6B
100
AcDbEntity
  8
0
  6
Continuous
100
AcDbLine
 10
161.8289369838321
 20
23.33853904302071
 30
0.0
 11
157.1752850323357
 21
29.17867491395857
 31
0.0
1001
ACAD
1000
DSTYLE
1002
{
1070
   147
1040
0.625
1070
    77
1070
     0
1002
}
  0
LINE
  5
1149
330
6B
100
AcDbEntity
  8
0
  6
ByBlock
 62
     0
370
    -2
100
AcDbLine
 10
162.352826191052
 20
23.75599474703588
 30
0.0
 11
163.386904
 21
21.3833565
 31
0.0
  0
LINE
  5
114A
330
6B
100
AcDbEntity
  8
0
  6
ByBlock
 62
     0
370
    -2
100
AcDbLine
 10
163.386904
 20
21.3833565
 30
0.0
 11
161.3050477766122
 21
22.92108333900555
 31
0.0
  0
LINE
  5
114B
330
6B
100
AcDbEntity
  8
0
  6
ByBlock
 62
     0
370
    -2
100
AcDbLine
 10
163.386904
 20
21.3833565
 30
0.0
 11
161.8289369838321
 21
23.33853904302071
 31
0.0
  0
LINE
  5
114C
330
6B
100
AcDbEntity
  8
0
  6
Continuous
100
AcDbLine
 10
164.0886176444474
 20
37.08051555104209
 30
0.0
 11
156.7411737111051
 21
48.64194889791583
 31
0.0
1001
ACAD
1000
DSTYLE
1002
{
1070
   147
1040
0.625
1070
    77
1070
     0
1002
}
  0
LINE
  5
114D
330
6B
100
AcDbEntity
  8
0
  6
ByBlock
 62
     0
370
    -2
100
AcDbLine
 10
164.653980937858
 20
37.43981140785106
 30
0.0
 11
165.429529
 21
34.97054950000001
 31
0.0
  0
LINE
  5
114E
330
6B
100
AcDbEntity
  8
0
  6
ByBlock
 62
     0
370
    -2
100
AcDbLine
 10
165.429529
 20
34.97054950000001
 30
0.0
 11
163.5232543510367
 21
36.72121969423314
 31
0.0
  0
LINE
  5
114F
330
6B
100
AcDbEntity
  8
0
  6
ByBlock
 62
     0
370
    -2
100
AcDbLine
 10
165.429529
 20
34.97054950000001
 30
0.0
 11
164.0886176444474
 21
37.08051555104209
 31
0.0
  0
TEXT
  5
1150
330
6B
100
AcDbEntity
  8
0
  6
Continuous
 62
     4
100
AcDbText
 10
-0.9531360000000073
 20
16.672545
 30
0.0
 40
3.0
  1
300
 50
90.0
100
AcDbText
  0
LINE
  5
1151
330
6B
100
AcDbEntity
  8
0
  6
ByBlock
 62
     0
370
    -2
100
AcDbLine
 10
-0.9980085
 20
36.422539
 30
0.0
 11
-0.328136
 21
38.922539
 31
0.0
  0
LINE
  5
1152
330
6B
100
AcDbEntity
  8
0
  6
ByBlock
 62
     0
370
    -2
100
AcDbLine
 10
-0.328136
 20
38.922539
 30
0.0
 11
0.3417364999999998
 21
36.422539
 31
0.0
  0
LINE
  5
1153
330
6B
100
AcDbEntity
  8
0
  6
ByBlock
 62
     0
370
    -2
100
AcDbLine
 10
-0.328136
 20
38.922539
 30
0.0
 11
-0.3281360000000002
 21
36.422539
 31
0.0
  0
LINE
  5
1154
330
6B
100
AcDbEntity
  8
0
  6
ByBlock
 62
     0
370
    -2
100
AcDbLine
 10
0.3417364999999921
 20
3.922550999999996
 30
0.0
 11
-0.3281360000000084
 21
1.422550999999996
 31
0.0
  0
LINE
  5
1155
330
6B
100
AcDbEntity
  8
0
  6
ByBlock
 62
     0
370
    -2
100
AcDbLine
 10
-0.3281360000000084
 20
1.422550999999996
 30
0.0
 11
-0.9980085000000078
 21
3.922550999999996
 31
0.0
  0
LINE
  5
1156
330
6B
100
AcDbEntity
  8
0
  6
ByBlock
 62
     0
370
    -2
100
AcDbLine
 10
-0.3281360000000084
 20
1.422550999999996
 30
0.0
 11
-0.3281360000000079
 21
3.922550999999996
 31
0.0
  0
TEXT
  5
1157
330
6B
100
AcDbEntity
  8
0
  6
Continuous
 62
     4
100
AcDbText
 10
-43.373707
 20
84.070025
 30
0.0
 40
3.0
  1
210
100
AcDbText
  0
LINE
  5
1158
330
6B
100
AcDbEntity
  8
0
  6
ByBlock
 62
     0
370
    -2
100
AcDbLine
 10
-29.496457
 20
84.11489749999999
 30
0.0
 11
-26.996457
 21
83.445025
 31
0.0
  0
LINE
  5
1159
330
6B
100
AcDbEntity
  8
0
  6
ByBlock
 62
     0
370
    -2
100
AcDbLine
 10
-26.996457
 20
83.445025
 30
0.0
 11
-29.496457
 21
82.7751525
 31
0.0
  0
LINE
  5
115A
330
6B
100
AcDbEntity
  8
0
  6
ByBlock
 62
     0
370
    -2
100
AcDbLine
 10
-26.996457
 20
83.445025
 30
0.0
 11
-29.496457
 21
83.445025
 31
0.0
  0
LINE
  5
115B
330
6B
100
AcDbEntity
  8
0
  6
ByBlock
 62
     0
370
    -2
100
AcDbLine
 10
-50.75095699999999
 20
82.7751525
 30
0.0
 11
-53.25095699999999
 21
83.445025
 31
0.0
  0
LINE
  5
115C
330
6B
100
AcDbEntity
  8
0
  6
ByBlock
 62
     0
370
    -2
100
AcDbLine
 10
-53.25095699999999
 20
83.445025
 30
0.0
 11
-50.75095699999999
 21
84.11489749999999
 31
0.0
  0
LINE
  5
115D
330
6B
100
AcDbEntity
  8
0
  6
ByBlock
 62
     0
370
    -2
100
AcDbLine
 10
-53.25095699999999
 20
83.445025
 30
0.0
 11
-50.75095699999999
 21
83.445025
 31
0.0
  0
TEXT
  5
115E
330
6B
100
AcDbEntity
  8
0
  6
Continuous
 62
     4
100
AcDbText
 10
-43.87420699999999
 20
-6.417944
 30
0.0
 40
3.0
  1
470
100
AcDbText
  0
LINE
  5
115F
330
6B
100
AcDbEntity
  8
0
  6
ByBlock
 62
     0
370
    -2
100
AcDbLine
 10
-13.249707
 20
-6.3730715
 30
0.0
 11
-10.749707
 21
-7.042944
 31
0.0
  0
LINE
  5
1160
330
6B
100
AcDbEntity
  8
0
  6
ByBlock
 62
     0
370
    -2
100
AcDbLine
 10
-10.749707
 20
-7.042944
 30
0.0
 11
-13.249707
 21
-7.7128165
 31
0.0
  0
LINE
  5
1161
330
6B
100
AcDbEntity
  8
0
  6
ByBlock
 62
     0
370
    -2
100
AcDbLine
 10
-10.749707
 20
-7.042944
 30
0.0
 11
-13.249707
 21
-7.042944
 31
0.0
  0
LINE
  5
1162
330
6B
100
AcDbEntity
  8
0
  6
ByBlock
 62
     0
370
    -2
100
AcDbLine
 10
-66.99870699999999
 20
-7.7128165
 30
0.0
 11
-69.49870699999999
 21
-7.042944
 31
0.0
  0
LINE
  5
1163
330
6B
100
AcDbEntity
  8
0
  6
ByBlock
 62
     0
370
    -2
100
AcDbLine
 10
-69.49870699999999
 20
-7.042944
 30
0.0
 11
-66.99870699999999
 21
-6.3730715
 31
0.0
  0
LINE
  5
1164
330
6B
100
AcDbEntity
  8
0
  6
ByBlock
 62
     0
370
    -2
100
AcDbLine
 10
-69.49870699999999
 20
-7.042944
 30
0.0
 11
-66.99870699999999
 21
-7.042944
 31
0.0
  0
TEXT
  5
1165
330
6B
100
AcDbEntity
  8
0
  6
Continuous
 62
     4
100
AcDbText
 10
82.5308775
 20
-13.827066
 30
0.0
 40
3.0
  1
580
100
AcDbText
  0
LINE
  5
1166
330
6B
100
AcDbEntity
  8
0
  6
ByBlock
 62
     0
370
    -2
100
AcDbLine
 10
120.049969
 20
-13.7821935
 30
0.0
 11
122.549969
 21
-14.452066
 31
0.0
  0
LINE
  5
1167
330
6B
100
AcDbEntity
  8
0
  6
ByBlock
 62
     0
370
    -2
100
AcDbLine
 10
122.549969
 20
-14.452066
 30
0.0
 11
120.049969
 21
-15.1219385
 31
0.0
  0
LINE
  5
1168
330
6B
100
AcDbEntity
  8
0
  6
ByBlock
 62
     0
370
    -2
100
AcDbLine
 10
122.549969
 20
-14.452066
 30
0.0
 11
120.049969
 21
-14.452066
 31
0.0
  0
LINE
  5
1169
330
6B
100
AcDbEntity
  8
0
  6
ByBlock
 62
     0
370
    -2
100
AcDbLine
 10
52.511786
 20
-15.1219385
 30
0.0
 11
50.011786
 21
-14.452066
 31
0.0
  0
LINE
  5
116A
330
6B
100
AcDbEntity
  8
0
  6
ByBlock
 62
     0
370
    -2
100
AcDbLine
 10
50.011786
 20
-14.452066
 30
0.0
 11
52.511786
 21
-13.7821935
 31
0.0
  0
LINE
  5
116B
330
6B
100
AcDbEntity
  8
0
  6
ByBlock
 62
     0
370
    -2
100
AcDbLine
 10
50.011786
 20
-14.452066
 30
0.0
 11
52.511786
 21
-14.452066
 31
0.0
  0
TEXT
  5
116C
330
6B
100
AcDbEntity
  8
0
  6
Continuous
 62
     4
100
AcDbText
 10
92.899969
 20
-7.372149
 30
0.0
 40
3.0
  1
325
100
AcDbText
  0
LINE
  5
116D
330
6B
100
AcDbEntity
  8
0
  6
ByBlock
 62
     0
370
    -2
100
AcDbLine
 10
114.649969
 20
-7.327276499999999
 30
0.0
 11
117.149969
 21
-7.997149
 31
0.0
  0
LINE
  5
116E
330
6B
100
AcDbEntity
  8
0
  6
ByBlock
 62
     0
370
    -2
100
AcDbLine
 10
117.149969
 20
-7.997149
 30
0.0
 11
114.649969
 21
-8.6670215
 31
0.0
  0
LINE
  5
116F
330
6B
100
AcDbEntity
  8
0
  6
ByBlock
 62
     0
370
    -2
100
AcDbLine
 10
117.149969
 20
-7.997149
 30
0.0
 11
114.649969
 21
-7.997149
 31
0.0
  0
LINE
  5
1170
330
6B
100
AcDbEntity
  8
0
  6
ByBlock
 62
     0
370
    -2
100
AcDbLine
 10
79.149969
 20
-8.6670215
 30
0.0
 11
76.649969
 21
-7.997149
 31
0.0
  0
LINE
  5
1171
330
6B
100
AcDbEntity
  8
0
  6
ByBlock
 62
     0
370
    -2
100
AcDbLine
 10
76.649969
 20
-7.997149
 30
0.0
 11
79.149969
 21
-7.3272765
 31
0.0
  0
LINE
  5
1172
330
6B
100
AcDbEntity
  8
0
  6
ByBlock
 62
     0
370
    -2
100
AcDbLine
 10
76.649969
 20
-7.997149
 30
0.0
 11
79.149969
 21
-7.997149
 31
0.0
  0
TEXT
  5
1173
330
6B
100
AcDbEntity
  8
0
  6
Continuous
 62
     4
100
AcDbText
 10
29.50155199999999
 20
33.32300100000001
 30
0.0
 40
3.0
  1
\U+03C6314
 50
90.0
100
AcDbText
  0
LINE
  5
1174
330
6B
100
AcDbEntity
  8
0
  6
ByBlock
 62
     0
370
    -2
100
AcDbLine
 10
29.4566795
 20
56.04800100000001
 30
0.0
 11
30.126552
 21
58.54800100000001
 31
0.0
  0
LINE
  5
1175
330
6B
100
AcDbEntity
  8
0
  6
ByBlock
 62
     0
370
    -2
100
AcDbLine
 10
30.126552
 20
58.54800100000001
 30
0.0
 11
30.7964245
 21
56.04800100000001
 31
0.0
  0
LINE
  5
1176
330
6B
100
AcDbEntity
  8
0
  6
ByBlock
 62
     0
370
    -2
100
AcDbLine
 10
30.126552
 20
58.54800100000001
 30
0.0
 11
30.126552
 21
56.04800100000001
 31
0.0
  0
LINE
  5
1177
330
6B
100
AcDbEntity
  8
0
  6
ByBlock
 62
     0
370
    -2
100
AcDbLine
 10
30.79642449999999
 20
21.79800100000001
 30
0.0
 11
30.12655199999999
 21
19.29800100000001
 31
0.0
  0
LINE
  5
1178
330
6B
100
AcDbEntity
  8
0
  6
ByBlock
 62
     0
370
    -2
100
AcDbLine
 10
30.12655199999999
 20
19.29800100000001
 30
0.0
 11
29.45667949999999
 21
21.79800100000001
 31
0.0
  0
LINE
  5
1179
330
6B
100
AcDbEntity
  8
0
  6
ByBlock
 62
     0
370
    -2
100
AcDbLine
 10
30.12655199999999
 20
19.29800100000001
 30
0.0
 11
30.12655199999999
 21
21.79800100000001
 31
0.0
  0
TEXT
  5
117A
330
6B
100
AcDbEntity
  8
0
  6
Continuous
 62
     4
100
AcDbText
 10
7.891765999999985
 20
35.42254499999999
 30
0.0
 40
3.0
  1
600
 50
90.0
100
AcDbText
  0
LINE
  5
117B
330
6B
100
AcDbEntity
  8
0
  6
ByBlock
 62
     0
370
    -2
100
AcDbLine
 10
7.8468935
 20
73.92253899999999
 30
0.0
 11
8.516766
 21
76.42253899999999
 31
0.0
  0
LINE
  5
117C
330
6B
100
AcDbEntity
  8
0
  6
ByBlock
 62
     0
370
    -2
100
AcDbLine
 10
8.516766
 20
76.42253899999999
 30
0.0
 11
9.1866385
 21
73.92253899999999
 31
0.0
  0
LINE
  5
117D
330
6B
100
AcDbEntity
  8
0
  6
ByBlock
 62
     0
370
    -2
100
AcDbLine
 10
8.516766
 20
76.42253899999999
 30
0.0
 11
8.516766
 21
73.92253899999999
 31
0.0
  0
LINE
  5
117E
330
6B
100
AcDbEntity
  8
0
  6
ByBlock
 62
     0
370
    -2
100
AcDbLine
 10
9.186638499999983
 20
3.922550999999994
 30
0.0
 11
8.516765999999982
 21
1.422550999999994
 31
0.0
  0
LINE
  5
117F
330
6B
100
AcDbEntity
  8
0
  6
ByBlock
 62
     0
370
    -2
100
AcDbLine
 10
8.516765999999982
 20
1.422550999999994
 30
0.0
 11
7.846893499999983
 21
3.922550999999994
 31
0.0
  0
LINE
  5
1180
330
6B
100
AcDbEntity
  8
0
  6
ByBlock
 62
     0
370
    -2
100
AcDbLine
 10
8.516765999999982
 20
1.422550999999994
 30
0.0
 11
8.516765999999982
 21
3.922550999999994
 31
0.0
  0
TEXT
  5
1181
330
6B
100
AcDbEntity
  8
0
  6
Continuous
 62
     4
100
AcDbText
 10
19.95988299999998
 20
33.07271400000001
 30
0.0
 40
3.0
  1
\U+03C6480
 50
90.0
100
AcDbText
  0
LINE
  5
1182
330
6B
100
AcDbEntity
  8
0
  6
ByBlock
 62
     0
370
    -2
100
AcDbLine
 10
19.9150105
 20
66.42271400000002
 30
0.0
 11
20.584883
 21
68.92271400000002
 31
0.0
  0
LINE
  5
1183
330
6B
100
AcDbEntity
  8
0
  6
ByBlock
 62
     0
370
    -2
100
AcDbLine
 10
20.584883
 20
68.92271400000002
 30
0.0
 11
21.2547555
 21
66.42271400000002
 31
0.0
  0
LINE
  5
1184
330
6B
100
AcDbEntity
  8
0
  6
ByBlock
 62
     0
370
    -2
100
AcDbLine
 10
20.584883
 20
68.92271400000002
 30
0.0
 11
20.584883
 21
66.42271400000002
 31
0.0
  0
LINE
  5
1185
330
6B
100
AcDbEntity
  8
0
  6
ByBlock
 62
     0
370
    -2
100
AcDbLine
 10
21.25475549999999
 20
11.42271400000001
 30
0.0
 11
20.58488299999999
 21
8.922714000000011
 31
0.0
  0
LINE
  5
1186
330
6B
100
AcDbEntity
  8
0
  6
ByBlock
 62
     0
370
    -2
100
AcDbLine
 10
20.58488299999999
 20
8.922714000000011
 30
0.0
 11
19.91501049999999
 21
11.42271400000001
 31
0.0
  0
LINE
  5
1187
330
6B
100
AcDbEntity
  8
0
  6
ByBlock
 62
     0
370
    -2
100
AcDbLine
 10
20.58488299999999
 20
8.922714000000011
 30
0.0
 11
20.58488299999999
 21
11.42271400000001
 31
0.0
  0
ENDSEC
  0
SECTION
  2
OBJECTS
  0
DICTIONARY
  5
C
330
0
100
AcDbDictionary
281
     1
  3
ACAD_2007HEADERVARS_RT
350
118B
  3
ACAD_COLOR
350
62
  3
ACAD_GROUP
350
D
  3
ACAD_LAYOUT
350
61
  3
ACAD_MATERIAL
350
10
  3
ACAD_MLEADERSTYLE
350
65
  3
ACAD_MLINESTYLE
350
5E
  3
ACAD_PLOTSETTINGS
350
60
  3
ACAD_PLOTSTYLENAME
350
E
  3
ACAD_SCALELIST
350
42
  3
ACAD_TABLESTYLE
350
63
  3
ACAD_VISUALSTYLE
350
29
  3
ACDB_RECOMPOSE_DATA
350
1189
  3
AcDbVariableDictionary
350
819
  3
AEC_PROPERTY_SET_DEFS
350
100E
  3
DWGPROPS
350
118A
  0
DICTIONARY
  5
623
330
2
100
AcDbDictionary
280
     1
281
     1
  3
ACAD_LAYERSTATES
360
624
  0
DICTIONARY
  5
813
330
54
100
AcDbDictionary
280
     1
281
     1
  3
ADSK_XREC_LAYER_RECONCILED
360
814
  0
DICTIONARY
  5
8EF
330
6B
100
AcDbDictionary
280
     1
281
     1
  3
ACAD_SORTENTS
360
8F0
  0
DICTIONARY
  5
118B
102
{ACAD_REACTORS
330
C
102
}
330
C
100
AcDbDictionary
281
     1
  3
DIMARCSYM
350
118D
  3
DIMFXL
350
118C
  3
DIMJOGANG
350
118E
  3
INTERFEREVPVS
350
118F
  0
DICTIONARY
  5
62
102
{ACAD_REACTORS
330
C
102
}
330
C
100
AcDbDictionary
281
     1
  0
DICTIONARY
  5
D
102
{ACAD_REACTORS
330
C
102
}
330
C
100
AcDbDictionary
281
     1
  0
DICTIONARY
  5
61
102
{ACAD_REACTORS
330
C
102
}
330
C
100
AcDbDictionary
281
     1
  3
Model
350
6E
  3
レイアウト1
350
6A
  0
DICTIONARY
  5
10
102
{ACAD_REACTORS
330
C
102
}
330
C
100
AcDbDictionary
281
     1
  3
ByBlock
350
19
  3
ByLayer
350
11
  3
Global
350
21
  0
DICTIONARY
  5
65
102
{ACAD_REACTORS
330
C
102
}
330
C
100
AcDbDictionary
281
     1
  3
Standard
350
66
  0
DICTIONARY
  5
5E
102
{ACAD_REACTORS
330
C
102
}
330
C
100
AcDbDictionary
281
     1
  3
Standard
350
5F
  0
DICTIONARY
  5
60
102
{ACAD_REACTORS
330
C
102
}
330
C
100
AcDbDictionary
281
     1
  0
ACDBDICTIONARYWDFLT
  5
E
102
{ACAD_REACTORS
330
C
102
}
330
C
100
AcDbDictionary
281
     1
  3
Normal
350
F
100
AcDbDictionaryWithDefault
340
F
  0
DICTIONARY
  5
42
102
{ACAD_REACTORS
330
C
102
}
330
C
100
AcDbDictionary
281
     1
  3
A0
350
43
  3
A1
350
44
  3
A2
350
45
  3
A3
350
46
  3
A4
350
47
  3
A5
350
48
  3
A6
350
49
  3
A7
350
4A
  3
A8
350
4B
  3
A9
350
4C
  3
B0
350
4D
  3
B1
350
4E
  3
B2
350
4F
  3
B3
350
50
  3
B4
350
51
  3
B5
350
52
  3
B6
350
53
  0
DICTIONARY
  5
63
102
{ACAD_REACTORS
330
C
102
}
330
C
100
AcDbDictionary
281
     1
  3
Standard
350
64
  0
DICTIONARY
  5
29
102
{ACAD_REACTORS
330
C
102
}
330
C
100
AcDbDictionary
281
     1
  3
2dWireframe
350
2F
  3
3D Hidden
350
86A
  3
3dWireframe
350
622
  3
Basic
350
2E
  3
Brighten
350
35
  3
ColorChange
350
39
  3
Conceptual
350
32
  3
Dim
350
34
  3
EdgeColorOff
350
41
  3
Facepattern
350
38
  3
Flat
350
2A
  3
FlatWithEdges
350
2B
  3
Gouraud
350
2C
  3
GouraudWithEdges
350
2D
  3
Hidden
350
31
  3
JitterOff
350
3F
  3
Linepattern
350
37
  3
OverhangOff
350
40
  3
Realistic
350
33
  3
Shaded
350
3E
  3
Shaded with edges
350
3D
  3
Shades of Gray
350
3A
  3
Sketchy
350
3B
  3
Thicken
350
36
  3
Wireframe
350
30
  3
X-Ray
350
3C
  0
XRECORD
  5
1189
102
{ACAD_REACTORS
330
C
102
}
330
C
100
AcDbXrecord
280
     1
 90
        1
330
64
  0
DICTIONARY
  5
819
102
{ACAD_REACTORS
330
C
102
}
330
C
100
AcDbDictionary
281
     1
  3
CANNOSCALE
350
81C
  3
CMLEADERSTYLE
350
81B
  3
CTABLESTYLE
350
81A
  3
DIMASSOC
350
81F
  3
INDEXCTL
350
81E
  3
LOFTANG1
350
102A
  3
LOFTANG2
350
102B
  3
SORTENTS
350
81D
  3
XCLIPFRAME
350
102C
  0
DICTIONARY
  5
100E
102
{ACAD_REACTORS
330
C
102
}
330
C
100
AcDbDictionary
281
     1
  0
XRECORD
  5
118A
102
{ACAD_REACTORS
330
C
102
}
330
C
100
AcDbXrecord
280
     1
  1
DWGPROPS COOKIE
  2

  3

  4

  6

  7

  8
imamura
  9

300
=
301
=
302
=
303
=
304
=
305
=
306
=
307
=
308
=
309
=
 40
0.0358459837962963
 41
2455608.75934294
 42
2457204.637596944
  1

 90
        0
  0
DICTIONARY
  5
624
102
{ACAD_REACTORS
330
623
102
}
330
623
100
AcDbDictionary
281
     1
  0
XRECORD
  5
814
102
{ACAD_REACTORS
330
813
102
}
330
813
100
AcDbXrecord
280
     1
290
     1
  0
SORTENTSTABLE
  5
8F0
102
{ACAD_REACTORS
330
8EF
102
}
330
8EF
100
AcDbSortentsTable
330
6B
331
114E
  5
1131
331
110F
  5
151
331
114A
  5
1135
331
8E7
  5
1165
331
15C
  5
24A
331
E0E
  5
117F
331
8E3
  5
1161
331
276
  5
33A
331
1FA
  5
2D6
331
158
  5
246
331
E0A
  5
117B
331
235
  5
2F9
331
154
  5
242
331
2EC
  5
3B6
331
272
  5
336
331
1F6
  5
2D2
331
231
  5
2F5
331
150
  5
23E
331
2AD
  5
377
331
1F2
  5
2CE
331
327
  5
3F1
331
26E
  5
332
331
2E8
  5
3B2
331
2A9
  5
373
331
323
  5
3ED
331
26A
  5
32E
331
2E4
  5
3AE
331
2E0
  5
3AA
331
366
  5
42A
331
3DC
  5
4BC
331
362
  5
426
331
39D
  5
473
331
417
  5
501
331
35E
  5
422
331
3D8
  5
4B6
331
399
  5
46F
331
413
  5
4FD
331
35A
  5
41E
331
3D4
  5
4B2
331
4D7
  5
10A1
331
455
  5
562
331
109C
  5
299
331
1186
  5
119
331
3D0
  5
4AE
331
4D3
  5
109D
331
451
  5
55E
331
1098
  5
295
331
10D7
  5
25D
331
1182
  5
11E
331
494
  5
1072
331
10D3
  5
259
331
50E
  5
10D7
331
44D
  5
554
331
1094
  5
291
331
4CF
  5
1099
331
490
  5
106E
331
1090
  5
7F9
331
50A
  5
10D4
331
449
  5
54E
331
4CB
  5
1095
331
1146
  5
1139
331
1142
  5
113D
331
1103
  5
1A0
331
113E
  5
1141
331
E06
  5
1177
331
113A
  5
1145
331
E02
  5
1173
331
22D
  5
2F1
331
14C
  5
23A
331
1EE
  5
2CA
331
DFE
  5
116F
331
19F
  5
281
331
229
  5
2ED
331
148
  5
236
331
2A5
  5
36F
331
1EA
  5
2C6
331
31F
  5
3E9
331
266
  5
32A
331
19B
  5
27D
331
225
  5
2E9
331
144
  5
232
331
2A1
  5
36B
331
1E6
  5
2C2
331
31B
  5
3E5
331
262
  5
326
331
2DC
  5
3A6
331
221
  5
2E5
331
140
  5
22E
331
29D
  5
367
331
1E2
  5
2BE
331
317
  5
3E1
331
25E
  5
322
331
2D8
  5
3A2
331
299
  5
363
331
313
  5
3DD
331
25A
  5
31E
331
2D4
  5
39E
331
8EE
  5
1124
331
2D0
  5
39A
331
8EA
  5
1168
331
395
  5
46A
331
40F
  5
4F9
331
356
  5
41A
331
391
  5
455
331
40B
  5
4F5
331
352
  5
416
331
3CC
  5
4A6
331
117E
  5
140
331
407
  5
4F1
331
38D
  5
451
331
3C8
  5
4A2
331
10CF
  5
26B
331
117A
  5
14C
331
389
  5
44D
331
403
  5
4ED
331
34A
  5
414
331
3C4
  5
49E
331
48C
  5
F14
331
10CB
  5
267
331
1176
  5
15B
331
108C
  5
579
331
506
  5
10D0
331
445
  5
543
331
3C0
  5
498
331
488
  5
E0F
331
10C7
  5
263
331
1172
  5
19A
331
1088
  5
575
331
502
  5
10CC
331
441
  5
533
331
484
  5
E0B
331
10C3
  5
25F
331
4FE
  5
10C8
331
43D
  5
528
331
480
  5
E07
331
4FA
  5
10C4
331
439
  5
524
331
1136
  5
1149
331
10F7
  5
1D8
331
1132
  5
114D
331
112E
  5
1151
331
577
  5
112A
331
10EF
  5
221
331
112A
  5
1155
331
573
  5
1126
331
10EB
  5
21D
331
528
  5
1109
331
21D
  5
2E1
331
13C
  5
22A
331
1DE
  5
2BA
331
563
  5
1122
331
524
  5
1105
331
295
  5
35F
331
1DA
  5
2B6
331
138
  5
226
331
30F
  5
3D9
331
256
  5
31A
331
1028
  5
1186
331
F13
  5
1183
331
520
  5
1101
331
291
  5
35B
331
1D6
  5
2B2
331
134
  5
222
331
30B
  5
3D5
331
252
  5
316
331
2CC
  5
396
331
28D
  5
357
331
1D2
  5
2AE
331
307
  5
3D1
331
24E
  5
312
331
2C8
  5
392
331
289
  5
353
331
303
  5
3CD
331
24A
  5
30E
331
2C4
  5
38E
331
2C0
  5
38A
331
385
  5
449
331
3FF
  5
4E9
331
346
  5
410
331
381
  5
445
331
3FB
  5
4E5
331
342
  5
40C
331
3BC
  5
492
331
116E
  5
19C
331
37D
  5
441
331
3F7
  5
4E1
331
33E
  5
408
331
3B8
  5
48E
331
10BF
  5
279
331
116A
  5
1C7
331
379
  5
43D
331
3F3
  5
4DD
331
33A
  5
404
331
3B4
  5
48A
331
47C
  5
E03
331
10BB
  5
275
331
1166
  5
1C9
331
4F6
  5
10C0
331
435
  5
520
331
4B7
  5
108D
331
3B0
  5
486
331
478
  5
DFF
331
10B7
  5
271
331
1162
  5
1D0
331
4F2
  5
10BC
331
431
  5
51C
331
4B3
  5
1089
331
474
  5
BAB
331
10B3
  5
26D
331
4EE
  5
10B8
331
42D
  5
518
331
4AF
  5
1085
331
470
  5
8EB
331
4EA
  5
10B4
331
429
  5
514
331
1126
  5
1159
331
10E7
  5
213
331
1122
  5
115D
331
10E3
  5
203
331
55F
  5
111E
331
10DF
  5
1F9
331
55B
  5
111A
331
10DB
  5
24F
331
51C
  5
10FD
331
111A
  5
FD
331
518
  5
10F9
331
1CE
  5
2AA
331
11C
  5
1F5
331
553
  5
1118
331
514
  5
10DD
331
167
  5
252
331
285
  5
349
331
1CA
  5
2A6
331
118
  5
1F1
331
2FF
  5
3C9
331
246
  5
30A
331
510
  5
10D9
331
281
  5
345
331
1C6
  5
2A2
331
114
  5
1ED
331
2FB
  5
3C5
331
242
  5
306
331
2BC
  5
386
331
27D
  5
341
331
2F7
  5
3C1
331
23E
  5
302
331
2B8
  5
382
331
279
  5
33D
331
2F3
  5
3BD
331
23A
  5
2FE
331
57A
  5
112D
331
2B4
  5
37E
331
2B0
  5
37A
331
375
  5
439
331
3EF
  5
4D9
331
336
  5
400
331
371
  5
435
331
3EB
  5
4D5
331
332
  5
3FC
331
3AC
  5
482
331
115E
  5
1D6
331
36D
  5
431
331
3E7
  5
4D1
331
32E
  5
3F8
331
3A8
  5
47E
331
10AF
  5
28E
331
115A
  5
1DF
331
369
  5
42D
331
3E3
  5
4CD
331
32A
  5
3F4
331
3A4
  5
47A
331
46C
  5
8E8
331
10AB
  5
28A
331
1156
  5
1E6
331
4E6
  5
10B0
331
425
  5
510
331
4A7
  5
1081
331
3A0
  5
476
331
4E2
  5
10AC
331
421
  5
50B
331
10A7
  5
286
331
1152
  5
1E8
331
4A3
  5
107D
331
E10
  5
1181
331
4DE
  5
10A8
331
41D
  5
507
331
10A3
  5
2A0
331
49F
  5
1079
331
458
  5
572
331
4DA
  5
10A4
331
419
  5
503
331
1116
  5
13F
331
114D
  5
1130
331
110E
  5
14D
331
1149
  5
1134
331
54B
  5
1113
331
110A
  5
168
331
8E6
  5
1164
331
15B
  5
249
331
8E2
  5
1160
331
E0D
  5
117E
331
543
  5
1111
331
2EF
  5
3B9
331
275
  5
339
331
1F9
  5
2D5
331
157
  5
245
331
E09
  5
117A
331
234
  5
2F8
331
153
  5
241
331
2EB
  5
3B5
331
271
  5
335
331
1F5
  5
2D1
331
230
  5
2F4
331
2AC
  5
376
331
1F1
  5
2CD
331
326
  5
3F0
331
26D
  5
331
331
2E7
  5
3B1
331
2A8
  5
372
331
322
  5
3EC
331
269
  5
32D
331
2E3
  5
3AD
331
3DF
  5
4C9
331
365
  5
429
331
3DB
  5
4BA
331
361
  5
425
331
39C
  5
472
331
416
  5
500
331
35D
  5
421
331
3D7
  5
4B5
331
109F
  5
29C
331
398
  5
46E
331
412
  5
4FC
331
359
  5
41D
331
3D3
  5
4B1
331
4D6
  5
10A0
331
454
  5
561
331
109B
  5
298
331
1185
  5
118
331
4D2
  5
109C
331
450
  5
55D
331
1097
  5
294
331
10D6
  5
25C
331
1181
  5
139
331
493
  5
1071
331
10D2
  5
258
331
1093
  5
8E5
331
50D
  5
10D6
331
44C
  5
553
331
4CE
  5
1098
331
509
  5
10D3
331
448
  5
54D
331
4CA
  5
1094
331
1145
  5
1138
331
1141
  5
113C
331
1102
  5
19F
331
113D
  5
1140
331
10FE
  5
1CF
331
1139
  5
1144
331
E05
  5
1176
331
53B
  5
110F
331
14F
  5
23D
331
E01
  5
1172
331
22C
  5
2F0
331
14B
  5
239
331
1ED
  5
2C9
331
DFD
  5
116E
331
533
  5
110D
331
19E
  5
280
331
228
  5
2EC
331
147
  5
235
331
2A4
  5
36E
331
1E9
  5
2C5
331
31E
  5
3E8
331
265
  5
329
331
2DF
  5
3A9
331
19A
  5
27C
331
224
  5
2E8
331
143
  5
231
331
2A0
  5
36A
331
1E5
  5
2C1
331
31A
  5
3E4
331
261
  5
325
331
2DB
  5
3A5
331
220
  5
2E4
331
29C
  5
366
331
1E1
  5
2BD
331
316
  5
3E0
331
25D
  5
321
331
2D7
  5
3A1
331
298
  5
362
331
312
  5
3DC
331
259
  5
31D
331
2D3
  5
39D
331
8ED
  5
116B
331
8E9
  5
1167
331
394
  5
458
331
40E
  5
4F8
331
355
  5
419
331
3CF
  5
4AD
331
390
  5
454
331
40A
  5
4F4
331
351
  5
415
331
3CB
  5
4A5
331
117D
  5
14B
331
406
  5
4F0
331
38C
  5
450
331
3C7
  5
4A1
331
48F
  5
1029
331
10CE
  5
26A
331
1179
  5
158
331
108F
  5
57C
331
388
  5
44C
331
402
  5
4EC
331
349
  5
413
331
3C3
  5
49D
331
48B
  5
F13
331
10CA
  5
266
331
1175
  5
15A
331
108B
  5
578
331
505
  5
10CF
331
444
  5
542
331
487
  5
E0E
331
10C6
  5
262
331
1171
  5
16A
331
1087
  5
574
331
501
  5
10CB
331
440
  5
532
331
4C2
  5
1091
331
483
  5
E0A
331
10C2
  5
25E
331
4FD
  5
10C7
331
43C
  5
527
331
4F9
  5
10C3
331
438
  5
523
331
4BA
  5
108F
331
1135
  5
1148
331
10F6
  5
1D7
331
1131
  5
114C
331
10F2
  5
1E3
331
112D
  5
1150
331
576
  5
1129
331
10EE
  5
220
331
1129
  5
1154
331
572
  5
1125
331
10EA
  5
21C
331
52B
  5
110B
331
13F
  5
22D
331
527
  5
1108
331
21C
  5
2E0
331
13B
  5
229
331
1DD
  5
2B9
331
562
  5
1121
331
523
  5
1104
331
294
  5
35E
331
1D9
  5
2B5
331
137
  5
225
331
30E
  5
3D8
331
255
  5
319
331
2CF
  5
399
331
F12
  5
1182
331
214
  5
2DE
331
290
  5
35A
331
1D5
  5
2B1
331
30A
  5
3D4
331
251
  5
315
331
2CB
  5
395
331
28C
  5
356
331
1D1
  5
2AD
331
306
  5
3D0
331
24D
  5
311
331
2C7
  5
391
331
288
  5
352
331
302
  5
3CC
331
249
  5
30D
331
2C3
  5
38D
331
FD
  5
1EB
331
384
  5
448
331
3FE
  5
4E8
331
345
  5
40F
331
3BF
  5
495
331
380
  5
444
331
3FA
  5
4E4
331
341
  5
40B
331
3BB
  5
491
331
116D
  5
19B
331
37C
  5
440
331
3F6
  5
4E0
331
33D
  5
407
331
3B7
  5
48D
331
47F
  5
E06
331
10BE
  5
278
331
1169
  5
1C6
331
378
  5
43C
331
3F2
  5
4DC
331
339
  5
403
331
3B3
  5
489
331
47B
  5
E02
331
10BA
  5
274
331
1165
  5
1CC
331
4F5
  5
10BF
331
434
  5
51F
331
4B6
  5
108C
331
477
  5
DFE
331
10B6
  5
270
331
1161
  5
1D5
331
4F1
  5
10BB
331
430
  5
51B
331
4B2
  5
1088
331
473
  5
8EE
331
10B2
  5
26C
331
4ED
  5
10B7
331
42C
  5
517
331
4AE
  5
1084
331
4E9
  5
10B3
331
428
  5
513
331
1125
  5
1158
331
10E6
  5
20C
331
1121
  5
115C
331
10E2
  5
1FC
331
1027
  5
1185
331
55E
  5
111D
331
10DE
  5
1F8
331
51F
  5
1100
331
51B
  5
10FC
331
10DA
  5
24E
331
517
  5
10F8
331
16A
  5
255
331
20C
  5
2DC
331
11B
  5
1F4
331
1CD
  5
2A9
331
513
  5
10DC
331
284
  5
348
331
1C9
  5
2A5
331
117
  5
1F0
331
2FE
  5
3C8
331
245
  5
309
331
2BF
  5
389
331
204
  5
2DA
331
113
  5
1EC
331
280
  5
344
331
1C5
  5
2A1
331
2FA
  5
3C4
331
241
  5
305
331
2BB
  5
385
331
27C
  5
340
331
2F6
  5
3C0
331
23D
  5
301
331
2B7
  5
381
331
278
  5
33C
331
2F2
  5
3BC
331
239
  5
2FD
331
579
  5
112C
331
2B3
  5
37D
331
374
  5
438
331
3EE
  5
4D8
331
335
  5
3FF
331
3AF
  5
485
331
370
  5
434
331
3EA
  5
4D4
331
331
  5
3FB
331
3AB
  5
481
331
115D
  5
1DC
331
36C
  5
430
331
3E6
  5
4D0
331
32D
  5
3F7
331
3A7
  5
47D
331
46F
  5
8EA
331
10AE
  5
28D
331
1159
  5
1DE
331
368
  5
42C
331
3E2
  5
4CC
331
329
  5
3F3
331
3A3
  5
479
331
46B
  5
8E7
331
10AA
  5
289
331
1155
  5
1E5
331
4E5
  5
10AF
331
424
  5
50F
331
4A6
  5
1080
331
4E1
  5
10AB
331
420
  5
50A
331
10A6
  5
285
331
1151
  5
1E7
331
4A2
  5
107C
331
4DD
  5
10A7
331
41C
  5
506
331
10A2
  5
29F
331
49E
  5
1078
331
4D9
  5
10A3
331
418
  5
502
331
49A
  5
1075
331
1115
  5
13B
331
114C
  5
1133
331
54E
  5
1115
331
1148
  5
1137
331
54A
  5
1112
331
1109
  5
167
331
8E5
  5
1163
331
1FC
  5
2D8
331
15A
  5
248
331
E0C
  5
117D
331
542
  5
1110
331
237
  5
2FB
331
156
  5
244
331
2EE
  5
3B8
331
274
  5
338
331
1F8
  5
2D4
331
E08
  5
1179
331
233
  5
2F7
331
152
  5
240
331
2AF
  5
379
331
1F4
  5
2D0
331
2EA
  5
3B4
331
270
  5
334
331
2AB
  5
375
331
1F0
  5
2CC
331
325
  5
3EF
331
26C
  5
330
331
2E6
  5
3B0
331
321
  5
3EB
331
268
  5
32C
331
2E2
  5
3AC
331
3DE
  5
4C8
331
364
  5
428
331
39F
  5
475
331
3DA
  5
4B8
331
360
  5
424
331
39B
  5
471
331
415
  5
4FF
331
35C
  5
420
331
3D6
  5
4B4
331
457
  5
564
331
109E
  5
29B
331
411
  5
4FB
331
358
  5
41C
331
3D2
  5
4B0
331
4D5
  5
109F
331
453
  5
560
331
109A
  5
297
331
1184
  5
135
331
4D1
  5
109B
331
44F
  5
55C
331
1096
  5
293
331
10D5
  5
25B
331
1180
  5
145
331
492
  5
1070
331
10D1
  5
257
331
1092
  5
8E4
331
4CD
  5
1097
331
44B
  5
551
331
508
  5
10D2
331
4C9
  5
1093
331
1144
  5
113B
331
1140
  5
113F
331
113C
  5
1143
331
10FD
  5
1CE
331
1138
  5
1147
331
E04
  5
1175
331
53A
  5
110E
331
22F
  5
2F3
331
14E
  5
23C
331
E00
  5
1171
331
22B
  5
2EF
331
14A
  5
238
331
2A7
  5
371
331
1EC
  5
2C8
331
DFC
  5
116D
331
532
  5
110C
331
19D
  5
27F
331
227
  5
2EB
331
146
  5
234
331
2A3
  5
36D
331
1E8
  5
2C4
331
31D
  5
3E7
331
264
  5
328
331
2DE
  5
3A8
331
223
  5
2E7
331
142
  5
230
331
29F
  5
369
331
1E4
  5
2C0
331
319
  5
3E3
331
260
  5
324
331
2DA
  5
3A4
331
29B
  5
365
331
1E0
  5
2BC
331
315
  5
3DF
331
25C
  5
320
331
2D6
  5
3A0
331
311
  5
3DB
331
258
  5
31C
331
2D2
  5
39C
331
8EC
  5
116A
331
8E8
  5
1166
331
397
  5
46C
331
393
  5
457
331
40D
  5
4F7
331
354
  5
418
331
3CE
  5
4AC
331
409
  5
4F3
331
38F
  5
453
331
3CA
  5
4A4
331
117C
  5
147
331
405
  5
4EF
331
38B
  5
44F
331
3C6
  5
4A0
331
48E
  5
1028
331
10CD
  5
269
331
1178
  5
157
331
108E
  5
57B
331
447
  5
54B
331
401
  5
4EB
331
348
  5
412
331
3C2
  5
49C
331
48A
  5
F12
331
10C9
  5
265
331
1174
  5
159
331
108A
  5
577
331
504
  5
10CE
331
443
  5
53B
331
486
  5
E0D
331
10C5
  5
261
331
1170
  5
169
331
1086
  5
573
331
500
  5
10CA
331
43F
  5
52B
331
482
  5
E09
331
10C1
  5
27B
331
4FC
  5
10C6
331
43B
  5
526
331
4F8
  5
10C2
331
1134
  5
114B
331
1130
  5
114F
331
10F1
  5
1E2
331
112C
  5
1153
331
575
  5
1128
331
10ED
  5
21F
331
1128
  5
1157
331
21F
  5
2E3
331
13E
  5
22C
331
10E9
  5
21B
331
526
  5
1107
331
21B
  5
2DF
331
13A
  5
228
331
297
  5
361
331
1DC
  5
2B8
331
561
  5
1120
331
522
  5
1103
331
293
  5
35D
331
1D8
  5
2B4
331
136
  5
224
331
30D
  5
3D7
331
254
  5
318
331
2CE
  5
398
331
213
  5
2DD
331
28F
  5
359
331
1D4
  5
2B0
331
309
  5
3D3
331
250
  5
314
331
2CA
  5
394
331
28B
  5
355
331
1D0
  5
2AC
331
305
  5
3CF
331
24C
  5
310
331
2C6
  5
390
331
301
  5
3CB
331
248
  5
30C
331
2C2
  5
38C
331
387
  5
44B
331
383
  5
447
331
3FD
  5
4E7
331
344
  5
40E
331
3BE
  5
494
331
37F
  5
443
331
3F9
  5
4E3
331
340
  5
40A
331
3BA
  5
490
331
116C
  5
19E
331
37B
  5
43F
331
3F5
  5
4DF
331
33C
  5
406
331
3B6
  5
48C
331
47E
  5
E05
331
10BD
  5
277
331
1168
  5
1CB
331
437
  5
522
331
3F1
  5
4DB
331
338
  5
402
331
3B2
  5
488
331
47A
  5
E01
331
10B9
  5
273
331
1164
  5
1D2
331
4F4
  5
10BE
331
433
  5
51E
331
4B5
  5
108B
331
476
  5
DFD
331
10B5
  5
26F
331
1160
  5
1D4
331
4F0
  5
10BA
331
42F
  5
51A
331
4B1
  5
1087
331
472
  5
8ED
331
10B1
  5
290
331
4EC
  5
10B6
331
42B
  5
516
331
4AD
  5
1083
331
4E8
  5
10B2
331
1124
  5
115B
331
10E5
  5
20B
331
1120
  5
115F
331
10E1
  5
1FB
331
55D
  5
111C
331
10DD
  5
251
331
51E
  5
10FF
331
111C
  5
114
331
51A
  5
10FB
331
10D9
  5
24D
331
11E
  5
1F7
331
516
  5
10DF
331
169
  5
254
331
20B
  5
2DB
331
11A
  5
1F3
331
287
  5
351
331
1CC
  5
2A8
331
551
  5
1117
331
512
  5
10DB
331
283
  5
347
331
1C8
  5
2A4
331
116
  5
1EF
331
2FD
  5
3C7
331
244
  5
308
331
2BE
  5
388
331
27F
  5
343
331
203
  5
2D9
331
2F9
  5
3C3
331
240
  5
304
331
2BA
  5
384
331
27B
  5
33F
331
2F5
  5
3BF
331
23C
  5
300
331
57C
  5
112F
331
2B6
  5
380
331
2F1
  5
3BB
331
238
  5
2FC
331
578
  5
112B
331
2B2
  5
37C
331
377
  5
43B
331
373
  5
437
331
3ED
  5
4D7
331
334
  5
3FE
331
3AE
  5
484
331
36F
  5
433
331
3E9
  5
4D3
331
330
  5
3FA
331
3AA
  5
480
331
115C
  5
1DB
331
36B
  5
42F
331
3E5
  5
4CF
331
32C
  5
3F6
331
3A6
  5
47C
331
46E
  5
8E9
331
10AD
  5
28C
331
1158
  5
1DD
331
427
  5
512
331
3E1
  5
4CB
331
328
  5
3F2
331
3A2
  5
478
331
46A
  5
8E6
331
10A9
  5
288
331
1154
  5
1E4
331
4E4
  5
10AE
331
423
  5
50E
331
4A5
  5
107F
331
4E0
  5
10AA
331
41F
  5
509
331
10A5
  5
284
331
1150
  5
1EA
331
4A1
  5
107B
331
4DC
  5
10A6
331
41B
  5
505
331
10A1
  5
29E
331
49D
  5
1077
331
4D8
  5
10A2
331
1114
  5
13A
331
114F
  5
1132
331
1110
  5
152
331
114B
  5
1136
331
54D
  5
1114
331
15D
  5
24B
331
1108
  5
15D
331
E0F
  5
1180
331
8E4
  5
1162
331
277
  5
33B
331
1FB
  5
2D7
331
159
  5
247
331
E0B
  5
117C
331
236
  5
2FA
331
155
  5
243
331
2ED
  5
3B7
331
273
  5
337
331
1F7
  5
2D3
331
232
  5
2F6
331
151
  5
23F
331
2AE
  5
378
331
1F3
  5
2CF
331
2E9
  5
3B3
331
26F
  5
333
331
2AA
  5
374
331
324
  5
3EE
331
26B
  5
32F
331
2E5
  5
3AF
331
320
  5
3EA
331
2E1
  5
3AB
331
367
  5
42B
331
3DD
  5
4C2
331
363
  5
427
331
39E
  5
474
331
3D9
  5
4B7
331
35F
  5
423
331
39A
  5
470
331
414
  5
4FE
331
35B
  5
41F
331
3D5
  5
4B3
331
456
  5
563
331
109D
  5
29A
331
1187
  5
11A
331
410
  5
4FA
331
3D1
  5
4AF
331
4D4
  5
109E
331
452
  5
55F
331
1099
  5
296
331
1183
  5
134
331
495
  5
1073
331
10D4
  5
25A
331
50F
  5
10D8
331
44E
  5
55B
331
1095
  5
292
331
4D0
  5
109A
331
491
  5
106F
331
10D0
  5
256
331
1091
  5
8E3
331
50B
  5
10D5
331
44A
  5
550
331
4CC
  5
1096
331
4C8
  5
1092
331
1147
  5
113A
331
1143
  5
113E
331
1104
  5
1C5
331
113F
  5
1142
331
113B
  5
1146
331
E07
  5
1178
331
10FC
  5
1CD
331
E03
  5
1174
331
10F8
  5
1D9
331
22E
  5
2F2
331
14D
  5
23B
331
1EF
  5
2CB
331
DFF
  5
1170
331
1A0
  5
282
331
22A
  5
2EE
331
149
  5
237
331
2A6
  5
370
331
1EB
  5
2C7
331
267
  5
32B
331
19C
  5
27E
331
226
  5
2EA
331
145
  5
233
331
2A2
  5
36C
331
1E7
  5
2C3
331
31C
  5
3E6
331
263
  5
327
331
2DD
  5
3A7
331
222
  5
2E6
331
141
  5
22F
331
29E
  5
368
331
1E3
  5
2BF
331
318
  5
3E2
331
25F
  5
323
331
2D9
  5
3A3
331
29A
  5
364
331
314
  5
3DE
331
25B
  5
31F
331
2D5
  5
39F
331
310
  5
3DA
331
2D1
  5
39B
331
8EB
  5
1169
331
396
  5
46B
331
357
  5
41B
331
392
  5
456
331
40C
  5
4F6
331
353
  5
417
331
3CD
  5
4A7
331
117F
  5
141
331
408
  5
4F2
331
38E
  5
452
331
3C9
  5
4A3
331
117B
  5
146
331
404
  5
4EE
331
38A
  5
44E
331
3C5
  5
49F
331
48D
  5
1027
331
10CC
  5
268
331
1177
  5
153
331
108D
  5
57A
331
507
  5
10D1
331
446
  5
54A
331
400
  5
4EA
331
3C1
  5
49A
331
489
  5
E10
331
10C8
  5
264
331
1173
  5
15C
331
1089
  5
576
331
503
  5
10CD
331
442
  5
53A
331
485
  5
E0C
331
10C4
  5
260
331
4FF
  5
10C9
331
43E
  5
529
331
481
  5
E08
331
10C0
  5
27A
331
4FB
  5
10C5
331
43A
  5
525
331
4BC
  5
1090
331
4B8
  5
108E
331
1137
  5
114A
331
1133
  5
114E
331
112F
  5
1152
331
10F0
  5
1E1
331
112B
  5
1156
331
574
  5
1127
331
10EC
  5
21E
331
BAB
  5
116C
331
529
  5
110A
331
10E8
  5
214
331
21E
  5
2E2
331
13D
  5
22B
331
1DF
  5
2BB
331
564
  5
1123
331
525
  5
1106
331
296
  5
360
331
1DB
  5
2B7
331
139
  5
227
331
257
  5
31B
331
1029
  5
1187
331
560
  5
111F
331
F14
  5
1184
331
521
  5
1102
331
292
  5
35C
331
1D7
  5
2B3
331
135
  5
223
331
30C
  5
3D6
331
253
  5
317
331
2CD
  5
397
331
28E
  5
358
331
1D3
  5
2AF
331
308
  5
3D2
331
24F
  5
313
331
2C9
  5
393
331
28A
  5
354
331
304
  5
3CE
331
24B
  5
30F
331
2C5
  5
38F
331
300
  5
3CA
331
2C1
  5
38B
331
386
  5
44A
331
347
  5
411
331
382
  5
446
331
3FC
  5
4E6
331
343
  5
40D
331
3BD
  5
493
331
116F
  5
19D
331
37E
  5
442
331
3F8
  5
4E2
331
33F
  5
409
331
3B9
  5
48F
331
116B
  5
1C8
331
37A
  5
43E
331
3F4
  5
4DE
331
33B
  5
405
331
3B5
  5
48B
331
47D
  5
E04
331
10BC
  5
276
331
1167
  5
1CA
331
4F7
  5
10C1
331
436
  5
521
331
3F0
  5
4DA
331
3B1
  5
487
331
479
  5
E00
331
10B8
  5
272
331
1163
  5
1D1
331
4F3
  5
10BD
331
432
  5
51D
331
4B4
  5
108A
331
475
  5
DFC
331
10B4
  5
26E
331
4EF
  5
10B9
331
42E
  5
519
331
4B0
  5
1086
331
471
  5
8EC
331
10B0
  5
28F
331
4EB
  5
10B5
331
42A
  5
515
331
4AC
  5
1082
331
1127
  5
115A
331
1123
  5
115E
331
10E4
  5
204
331
10E0
  5
1FA
331
55C
  5
111B
331
10DC
  5
250
331
51D
  5
10FE
331
111B
  5
113
331
519
  5
10FA
331
10D8
  5
24C
331
1CF
  5
2AB
331
11D
  5
1F6
331
554
  5
1119
331
515
  5
10DE
331
168
  5
253
331
286
  5
34A
331
1CB
  5
2A7
331
119
  5
1F2
331
247
  5
30B
331
550
  5
1116
331
511
  5
10DA
331
282
  5
346
331
1C7
  5
2A3
331
115
  5
1EE
331
2FC
  5
3C6
331
243
  5
307
331
2BD
  5
387
331
27E
  5
342
331
2F8
  5
3C2
331
23F
  5
303
331
2B9
  5
383
331
27A
  5
33E
331
2F4
  5
3BE
331
23B
  5
2FF
331
57B
  5
112E
331
2B5
  5
37F
331
2F0
  5
3BA
331
2B1
  5
37B
331
376
  5
43A
331
337
  5
401
331
372
  5
436
331
3EC
  5
4D6
331
333
  5
3FD
331
3AD
  5
483
331
115F
  5
1D3
331
36E
  5
432
331
3E8
  5
4D2
331
32F
  5
3F9
331
3A9
  5
47F
331
115B
  5
1DA
331
36A
  5
42E
331
3E4
  5
4CE
331
32B
  5
3F5
331
3A5
  5
47B
331
4E7
  5
10B1
331
426
  5
511
331
10AC
  5
28B
331
1157
  5
1E0
331
3E0
  5
4CA
331
3A1
  5
477
331
4E3
  5
10AD
331
422
  5
50D
331
10A8
  5
287
331
1153
  5
1E9
331
4A4
  5
107E
331
4DF
  5
10A9
331
41E
  5
508
331
10A4
  5
283
331
4A0
  5
107A
331
4DB
  5
10A5
331
41A
  5
504
331
10A0
  5
29D
331
49C
  5
1076
331
498
  5
1074
  0
XRECORD
  5
118D
102
{ACAD_REACTORS
330
118B
102
}
330
118B
100
AcDbXrecord
280
     1
 70
     2
  0
XRECORD
  5
118C
102
{ACAD_REACTORS
330
118B
102
}
330
118B
100
AcDbXrecord
280
     1
 40
1.25
  0
XRECORD
  5
118E
102
{ACAD_REACTORS
330
118B
102
}
330
118B
100
AcDbXrecord
280
     1
 40
1.570796326794896
  0
XRECORD
  5
118F
102
{ACAD_REACTORS
330
118B
102
}
330
118B
100
AcDbXrecord
280
     1
340
622
  0
LAYOUT
  5
6E
102
{ACAD_XDICTIONARY
360
11C3
102
}
102
{ACAD_REACTORS
330
61
102
}
330
61
100
AcDbPlotSettings
  1

  2
FX DP 205
  4

  6

 40
0.0
 41
0.0
 42
0.0
 43
0.0
 44
0.0
 45
0.0
 46
0.0
 47
0.0
 48
0.0
 49
0.0
140
0.0
141
0.0
142
1.0
143
1.0
 70
  1712
 72
     0
 73
     0
 74
     0
  7

 75
     0
147
1.0
148
0.0
149
0.0
100
AcDbLayout
  1
Model
 70
     1
 71
     0
 10
0.0
 20
0.0
 11
12.0
 21
9.0
 12
0.0
 22
0.0
 32
0.0
 14
0.0
 24
0.0
 34
0.0
 15
0.0
 25
0.0
 35
0.0
146
0.0
 13
0.0
 23
0.0
 33
0.0
 16
1.0
 26
0.0
 36
0.0
 17
0.0
 27
1.0
 37
0.0
 76
     0
330
6B
331
8C
  0
LAYOUT
  5
6A
102
{ACAD_XDICTIONARY
360
11C1
102
}
102
{ACAD_REACTORS
330
61
102
}
330
61
100
AcDbPlotSettings
  1

  2
FX DP 205
  4

  6

 40
0.0
 41
0.0
 42
0.0
 43
0.0
 44
0.0
 45
0.0
 46
0.0
 47
0.0
 48
0.0
 49
0.0
140
0.0
141
0.0
142
1.0
143
1.0
 70
   688
 72
     0
 73
     0
 74
     5
  7

 75
    16
147
1.0
148
0.0
149
0.0
100
AcDbLayout
  1
レイアウト1
 70
     1
 71
     1
 10
0.0
 20
0.0
 11
12.0
 21
9.0
 12
0.0
 22
0.0
 32
0.0
 14
1.000000000000000E+20
 24
1.000000000000000E+20
 34
1.000000000000000E+20
 15
-1.000000000000000E+20
 25
-1.000000000000000E+20
 35
-1.000000000000000E+20
146
0.0
 13
0.0
 23
0.0
 33
0.0
 16
1.0
 26
0.0
 36
0.0
 17
0.0
 27
1.0
 37
0.0
 76
     0
330
67
  0
MATERIAL
  5
19
102
{ACAD_XDICTIONARY
360
1A
102
}
102
{ACAD_REACTORS
330
10
102
}
330
10
100
AcDbMaterial
  1
ByBlock
 72
     0
 43
0.0208333333333333
 43
0.0
 43
0.0
 43
0.0
 43
0.0
 43
0.0208333333333333
 43
0.0
 43
0.0
 43
0.0
 43
0.0
 43
1.0
 43
0.0
 43
0.0
 43
0.0
 43
0.0
 43
1.0
 77
     0
 47
0.0208333333333333
 47
0.0
 47
0.0
 47
0.0
 47
0.0
 47
0.0208333333333333
 47
0.0
 47
0.0
 47
0.0
 47
0.0
 47
1.0
 47
0.0
 47
0.0
 47
0.0
 47
0.0
 47
1.0
171
     0
 49
0.0208333333333333
 49
0.0
 49
0.0
 49
0.0
 49
0.0
 49
0.0208333333333333
 49
0.0
 49
0.0
 49
0.0
 49
0.0
 49
1.0
 49
0.0
 49
0.0
 49
0.0
 49
0.0
 49
1.0
175
     0
142
0.0208333333333333
142
0.0
142
0.0
142
0.0
142
0.0
142
0.0208333333333333
142
0.0
142
0.0
142
0.0
142
0.0
142
1.0
142
0.0
142
0.0
142
0.0
142
0.0
142
1.0
179
     0
144
0.0208333333333333
144
0.0
144
0.0
144
0.0
144
0.0
144
0.0208333333333333
144
0.0
144
0.0
144
0.0
144
0.0
144
1.0
144
0.0
144
0.0
144
0.0
144
0.0
144
1.0
147
0.0208333333333333
147
0.0
147
0.0
147
0.0
147
0.0
147
0.0208333333333333
147
0.0
147
0.0
147
0.0
147
0.0
147
1.0
147
0.0
147
0.0
147
0.0
147
0.0
147
1.0
  0
MATERIAL
  5
11
102
{ACAD_XDICTIONARY
360
12
102
}
102
{ACAD_REACTORS
330
10
102
}
330
10
100
AcDbMaterial
  1
ByLayer
 72
     0
 43
0.0208333333333333
 43
0.0
 43
0.0
 43
0.0
 43
0.0
 43
0.0208333333333333
 43
0.0
 43
0.0
 43
0.0
 43
0.0
 43
1.0
 43
0.0
 43
0.0
 43
0.0
 43
0.0
 43
1.0
 77
     0
 47
0.0208333333333333
 47
0.0
 47
0.0
 47
0.0
 47
0.0
 47
0.0208333333333333
 47
0.0
 47
0.0
 47
0.0
 47
0.0
 47
1.0
 47
0.0
 47
0.0
 47
0.0
 47
0.0
 47
1.0
171
     0
 49
0.0208333333333333
 49
0.0
 49
0.0
 49
0.0
 49
0.0
 49
0.0208333333333333
 49
0.0
 49
0.0
 49
0.0
 49
0.0
 49
1.0
 49
0.0
 49
0.0
 49
0.0
 49
0.0
 49
1.0
175
     0
142
0.0208333333333333
142
0.0
142
0.0
142
0.0
142
0.0
142
0.0208333333333333
142
0.0
142
0.0
142
0.0
142
0.0
142
1.0
142
0.0
142
0.0
142
0.0
142
0.0
142
1.0
179
     0
144
0.0208333333333333
144
0.0
144
0.0
144
0.0
144
0.0
144
0.0208333333333333
144
0.0
144
0.0
144
0.0
144
0.0
144
1.0
144
0.0
144
0.0
144
0.0
144
0.0
144
1.0
147
0.0208333333333333
147
0.0
147
0.0
147
0.0
147
0.0
147
0.0208333333333333
147
0.0
147
0.0
147
0.0
147
0.0
147
1.0
147
0.0
147
0.0
147
0.0
147
0.0
147
1.0
  0
MATERIAL
  5
21
102
{ACAD_XDICTIONARY
360
22
102
}
102
{ACAD_REACTORS
330
10
102
}
330
10
100
AcDbMaterial
  1
Global
 72
     0
 43
0.0208333333333333
 43
0.0
 43
0.0
 43
0.0
 43
0.0
 43
0.0208333333333333
 43
0.0
 43
0.0
 43
0.0
 43
0.0
 43
1.0
 43
0.0
 43
0.0
 43
0.0
 43
0.0
 43
1.0
 77
     0
 47
0.0208333333333333
 47
0.0
 47
0.0
 47
0.0
 47
0.0
 47
0.0208333333333333
 47
0.0
 47
0.0
 47
0.0
 47
0.0
 47
1.0
 47
0.0
 47
0.0
 47
0.0
 47
0.0
 47
1.0
171
     0
 49
0.0208333333333333
 49
0.0
 49
0.0
 49
0.0
 49
0.0
 49
0.0208333333333333
 49
0.0
 49
0.0
 49
0.0
 49
0.0
 49
1.0
 49
0.0
 49
0.0
 49
0.0
 49
0.0
 49
1.0
175
     0
142
0.0208333333333333
142
0.0
142
0.0
142
0.0
142
0.0
142
0.0208333333333333
142
0.0
142
0.0
142
0.0
142
0.0
142
1.0
142
0.0
142
0.0
142
0.0
142
0.0
142
1.0
179
     0
144
0.0208333333333333
144
0.0
144
0.0
144
0.0
144
0.0
144
0.0208333333333333
144
0.0
144
0.0
144
0.0
144
0.0
144
1.0
144
0.0
144
0.0
144
0.0
144
0.0
144
1.0
147
0.0208333333333333
147
0.0
147
0.0
147
0.0
147
0.0
147
0.0208333333333333
147
0.0
147
0.0
147
0.0
147
0.0
147
1.0
147
0.0
147
0.0
147
0.0
147
0.0
147
1.0
  0
MLEADERSTYLE
  5
66
102
{ACAD_REACTORS
330
65
102
}
330
65
100
AcDbMLeaderStyle
170
     2
171
     1
172
     0
 90
        2
 40
0.0
 41
0.0
173
     1
 91
-1056964608
340
5A
 92
       -2
290
     1
 42
0.09
291
     1
 43
0.36
  3
Standard
 44
0.18
300

342
55
174
     1
178
     6
175
     1
176
     0
 93
-1056964608
 45
0.18
292
     0
297
     0
 46
0.18
 94
-1056964608
 47
1.0
 49
1.0
140
1.0
293
     1
141
0.0
294
     1
177
     0
142
1.0
295
     0
296
     0
143
0.125
1001
ACAD_MLEADERVER
1070
     2
  0
MLINESTYLE
  5
5F
102
{ACAD_REACTORS
330
5E
102
}
330
5E
100
AcDbMlineStyle
  2
STANDARD
 70
     0
  3

 62
   256
 51
90.0
 52
90.0
 71
     2
 49
0.5
 62
   256
  6
BYLAYER
 49
-0.5
 62
   256
  6
BYLAYER
  0
ACDBPLACEHOLDER
  5
F
102
{ACAD_REACTORS
330
E
102
}
330
E
  0
SCALE
  5
43
102
{ACAD_REACTORS
330
42
102
}
330
42
100
AcDbScale
 70
     0
300
1:1
140
1.0
141
1.0
290
     1
  0
SCALE
  5
44
102
{ACAD_REACTORS
330
42
102
}
330
42
100
AcDbScale
 70
     0
300
1/128" = 1'-0"
140
0.0078125
141
12.0
290
     0
  0
SCALE
  5
45
102
{ACAD_REACTORS
330
42
102
}
330
42
100
AcDbScale
 70
     0
300
1/64" = 1'-0"
140
0.015625
141
12.0
290
     0
  0
SCALE
  5
46
102
{ACAD_REACTORS
330
42
102
}
330
42
100
AcDbScale
 70
     0
300
1/32" = 1'-0"
140
0.03125
141
12.0
290
     0
  0
SCALE
  5
47
102
{ACAD_REACTORS
330
42
102
}
330
42
100
AcDbScale
 70
     0
300
1/16" = 1'-0"
140
0.0625
141
12.0
290
     0
  0
SCALE
  5
48
102
{ACAD_REACTORS
330
42
102
}
330
42
100
AcDbScale
 70
     0
300
3/32" = 1'-0"
140
0.09375
141
12.0
290
     0
  0
SCALE
  5
49
102
{ACAD_REACTORS
330
42
102
}
330
42
100
AcDbScale
 70
     0
300
1/8" = 1'-0"
140
0.125
141
12.0
290
     0
  0
SCALE
  5
4A
102
{ACAD_REACTORS
330
42
102
}
330
42
100
AcDbScale
 70
     0
300
3/16" = 1'-0"
140
0.1875
141
12.0
290
     0
  0
SCALE
  5
4B
102
{ACAD_REACTORS
330
42
102
}
330
42
100
AcDbScale
 70
     0
300
1/4" = 1'-0"
140
0.25
141
12.0
290
     0
  0
SCALE
  5
4C
102
{ACAD_REACTORS
330
42
102
}
330
42
100
AcDbScale
 70
     0
300
3/8" = 1'-0"
140
0.375
141
12.0
290
     0
  0
SCALE
  5
4D
102
{ACAD_REACTORS
330
42
102
}
330
42
100
AcDbScale
 70
     0
300
1/2" = 1'-0"
140
0.5
141
12.0
290
     0
  0
SCALE
  5
4E
102
{ACAD_REACTORS
330
42
102
}
330
42
100
AcDbScale
 70
     0
300
3/4" = 1'-0"
140
0.75
141
12.0
290
     0
  0
SCALE
  5
4F
102
{ACAD_REACTORS
330
42
102
}
330
42
100
AcDbScale
 70
     0
300
1" = 1'-0"
140
1.0
141
12.0
290
     0
  0
SCALE
  5
50
102
{ACAD_REACTORS
330
42
102
}
330
42
100
AcDbScale
 70
     0
300
1-1/2" = 1'-0"
140
1.5
141
12.0
290
     0
  0
SCALE
  5
51
102
{ACAD_REACTORS
330
42
102
}
330
42
100
AcDbScale
 70
     0
300
3" = 1'-0"
140
3.0
141
12.0
290
     0
  0
SCALE
  5
52
102
{ACAD_REACTORS
330
42
102
}
330
42
100
AcDbScale
 70
     0
300
6" = 1'-0"
140
6.0
141
12.0
290
     0
  0
SCALE
  5
53
102
{ACAD_REACTORS
330
42
102
}
330
42
100
AcDbScale
 70
     0
300
1'-0" = 1'-0"
140
12.0
141
12.0
290
     0
  0
TABLESTYLE
  5
64
102
{ACAD_XDICTIONARY
360
821
102
}
102
{ACAD_REACTORS
330
63
102
}
330
63
100
AcDbTableStyle
  3
Standard
 70
     0
 71
     0
 40
0.06
 41
0.06
280
     0
281
     0
  7
STANDARD
140
0.18
170
     2
 62
     0
 63
     7
283
     0
274
    -2
284
     1
 64
     0
275
    -2
285
     1
 65
     0
276
    -2
286
     1
 66
     0
277
    -2
287
     1
 67
     0
278
    -2
288
     1
 68
     0
279
    -2
289
     1
 69
     0
  7
STANDARD
140
0.25
170
     5
 62
     0
 63
     7
283
     0
274
    -2
284
     1
 64
     0
275
    -2
285
     1
 65
     0
276
    -2
286
     1
 66
     0
277
    -2
287
     1
 67
     0
278
    -2
288
     1
 68
     0
279
    -2
289
     1
 69
     0
  7
STANDARD
140
0.18
170
     5
 62
     0
 63
     7
283
     0
274
    -2
284
     1
 64
     0
275
    -2
285
     1
 65
     0
276
    -2
286
     1
 66
     0
277
    -2
287
     1
 67
     0
278
    -2
288
     1
 68
     0
279
    -2
289
     1
 69
     0
  0
VISUALSTYLE
  5
2F
102
{ACAD_XDICTIONARY
360
119A
102
}
102
{ACAD_REACTORS
330
29
102
}
330
29
100
AcDbVisualStyle
  2

 70
     4
 71
     0
 72
     2
 73
     0
 90
        0
 40
-0.6
 41
-30.0
 62
     5
 63
     7
 74
     1
 91
        4
 64
     7
 65
   257
 75
     1
175
     1
 42
1.0
 92
        0
 66
   257
 43
1.0
 76
     1
 77
     6
 78
     2
 67
     7
 79
     5
170
     0
171
     0
290
     0
174
     0
 93
        1
 44
0.0
173
     0
291
     0
 45
0.0
1001
ACAD
1000
AcDbSavedByObjectVersion
1070
     0
  0
VISUALSTYLE
  5
86A
102
{ACAD_XDICTIONARY
360
11C7
102
}
102
{ACAD_REACTORS
330
29
102
}
330
29
100
AcDbVisualStyle
  2

 70
     6
 71
     1
 72
     2
 73
     2
 90
        0
 40
-0.6
 41
-30.0
 62
     5
 63
     7
 74
     2
 91
        2
 64
     7
 65
   257
 75
     2
175
     1
 42
40.0
 92
        0
 66
   257
 43
1.0
 76
     1
 77
     6
 78
     2
 67
     7
 79
     3
170
     0
171
     0
290
     0
174
     0
 93
        1
 44
0.0
173
     0
291
     0
 45
0.0
1001
ACAD
1000
AcDbSavedByObjectVersion
1070
     0
  0
VISUALSTYLE
  5
622
102
{ACAD_XDICTIONARY
360
11C5
102
}
102
{ACAD_REACTORS
330
29
102
}
330
29
100
AcDbVisualStyle
  2

 70
     5
 71
     0
 72
     2
 73
     1
 90
        0
 40
-0.6
 41
-30.0
 62
     5
 63
     7
 74
     1
 91
        4
 64
     7
 65
   257
 75
     1
175
     1
 42
1.0
 92
        0
 66
   257
 43
1.0
 76
     1
 77
     6
 78
     2
 67
     7
 79
     5
170
     0
171
     0
290
     0
174
     0
 93
        1
 44
0.0
173
     0
291
     0
 45
0.0
1001
ACAD
1000
AcDbSavedByObjectVersion
1070
     0
  0
VISUALSTYLE
  5
2E
102
{ACAD_XDICTIONARY
360
1198
102
}
102
{ACAD_REACTORS
330
29
102
}
330
29
100
AcDbVisualStyle
  2

 70
     7
 71
     1
 72
     0
 73
     1
 90
        0
 40
-0.6
 41
-30.0
 62
     5
 63
     7
 74
     0
 91
        4
 64
     7
 65
   257
 75
     1
175
     1
 42
1.0
 92
        8
 66
     7
 43
1.0
 76
     1
 77
     6
 78
     2
 67
     7
 79
     5
170
     0
171
     0
290
     0
174
     0
 93
        1
 44
0.0
173
     0
291
     1
 45
0.0
1001
ACAD
1000
AcDbSavedByObjectVersion
1070
     0
  0
VISUALSTYLE
  5
35
102
{ACAD_XDICTIONARY
360
11A6
102
}
102
{ACAD_REACTORS
330
29
102
}
330
29
100
AcDbVisualStyle
  2

 70
    12
 71
     2
 72
     2
 73
     0
 90
        0
 40
-0.6
 41
-30.0
 62
     5
 63
     7
 74
     1
 91
        4
 64
     7
 65
   257
 75
     1
175
     1
 42
1.0
 92
        8
 66
     7
 43
1.0
 76
     1
 77
     6
 78
     2
 67
     7
 79
     5
170
     0
171
     0
290
     0
174
     0
 93
        1
 44
50.0
173
     0
291
     1
 45
0.0
1001
ACAD
1000
AcDbSavedByObjectVersion
1070
     0
  0
VISUALSTYLE
  5
39
102
{ACAD_XDICTIONARY
360
11AE
102
}
102
{ACAD_REACTORS
330
29
102
}
330
29
100
AcDbVisualStyle
  2

 70
    16
 71
     2
 72
     2
 73
     3
 90
        0
 40
-0.6
 41
-30.0
 62
     5
 63
     8
 74
     1
 91
        4
 64
     7
 65
   257
 75
     1
175
     1
 42
1.0
 92
        8
 66
     8
 43
1.0
 76
     1
 77
     6
 78
     2
 67
     7
 79
     5
170
     0
171
     0
290
     0
174
     0
 93
        1
 44
0.0
173
     0
291
     1
 45
0.0
1001
ACAD
1000
AcDbSavedByObjectVersion
1070
     0
  0
VISUALSTYLE
  5
32
102
{ACAD_XDICTIONARY
360
11A0
102
}
102
{ACAD_REACTORS
330
29
102
}
330
29
100
AcDbVisualStyle
  2

 70
     9
 71
     3
 72
     2
 73
     0
 90
        0
 40
-0.6
 41
-30.0
 62
     5
 63
     7
 74
     2
 91
        2
 64
     7
 65
   257
 75
     1
175
     1
 42
179.0
 92
        8
 66
     7
 43
1.0
 76
     1
 77
     6
 78
     2
 67
     7
 79
     3
170
     0
171
     0
290
     0
174
     0
 93
        1
 44
0.0
173
     0
291
     0
 45
0.0
1001
ACAD
1000
AcDbSavedByObjectVersion
1070
     0
  0
VISUALSTYLE
  5
34
102
{ACAD_XDICTIONARY
360
11A4
102
}
102
{ACAD_REACTORS
330
29
102
}
330
29
100
AcDbVisualStyle
  2

 70
    11
 71
     2
 72
     2
 73
     0
 90
        0
 40
-0.6
 41
-30.0
 62
     5
 63
     7
 74
     1
 91
        4
 64
     7
 65
   257
 75
     1
175
     1
 42
1.0
 92
        8
 66
     7
 43
1.0
 76
     1
 77
     6
 78
     2
 67
     7
 79
     5
170
     0
171
     0
290
     0
174
     0
 93
        1
 44
-50.0
173
     0
291
     1
 45
0.0
1001
ACAD
1000
AcDbSavedByObjectVersion
1070
     0
  0
VISUALSTYLE
  5
41
102
{ACAD_XDICTIONARY
360
11BE
102
}
102
{ACAD_REACTORS
330
29
102
}
330
29
100
AcDbVisualStyle
  2

 70
    22
 71
     2
 72
     2
 73
     0
 90
        0
 40
-0.6
 41
-30.0
 62
     5
 63
     7
 74
     1
 91
        4
 64
     7
 65
   257
 75
     1
175
     1
 42
1.0
 92
        8
 66
     7
 43
1.0
 76
     1
 77
     6
 78
     2
 67
     7
 79
     5
170
     0
171
     0
290
     0
174
     0
 93
        1
 44
0.0
173
     0
291
     1
 45
0.0
1001
ACAD
1000
AcDbSavedByObjectVersion
1070
     0
  0
VISUALSTYLE
  5
38
102
{ACAD_XDICTIONARY
360
11AC
102
}
102
{ACAD_REACTORS
330
29
102
}
330
29
100
AcDbVisualStyle
  2

 70
    15
 71
     2
 72
     2
 73
     0
 90
        0
 40
-0.6
 41
-30.0
 62
     5
 63
     7
 74
     1
 91
        4
 64
     7
 65
   257
 75
     1
175
     1
 42
1.0
 92
        8
 66
     7
 43
1.0
 76
     1
 77
     6
 78
     2
 67
     7
 79
     5
170
     0
171
     0
290
     0
174
     0
 93
        1
 44
0.0
173
     0
291
     1
 45
0.0
1001
ACAD
1000
AcDbSavedByObjectVersion
1070
     0
  0
VISUALSTYLE
  5
2A
102
{ACAD_XDICTIONARY
360
1190
102
}
102
{ACAD_REACTORS
330
29
102
}
330
29
100
AcDbVisualStyle
  2

 70
     0
 71
     2
 72
     1
 73
     1
 90
        2
 40
-0.6
 41
30.0
 62
     5
 63
     7
 74
     0
 91
        0
 64
     7
 65
   257
 75
     1
175
     1
 42
1.0
 92
        8
 66
     7
 43
1.0
 76
     1
 77
     6
 78
     2
 67
     7
 79
     5
170
     0
171
     0
290
     0
174
     0
 93
       13
 44
0.0
173
     0
291
     1
 45
0.0
1001
ACAD
1000
AcDbSavedByObjectVersion
1070
     0
  0
VISUALSTYLE
  5
2B
102
{ACAD_XDICTIONARY
360
1192
102
}
102
{ACAD_REACTORS
330
29
102
}
330
29
100
AcDbVisualStyle
  2

 70
     1
 71
     2
 72
     1
 73
     1
 90
        2
 40
-0.6
 41
30.0
 62
     5
 63
     7
 74
     1
 91
        0
 64
     7
 65
   257
 75
     1
175
     1
 42
1.0
 92
        0
 66
   257
 43
1.0
 76
     1
 77
     6
 78
     2
 67
     7
 79
     5
170
     0
171
     0
290
     0
174
     0
 93
       13
 44
0.0
173
     0
291
     1
 45
0.0
1001
ACAD
1000
AcDbSavedByObjectVersion
1070
     0
  0
VISUALSTYLE
  5
2C
102
{ACAD_XDICTIONARY
360
1194
102
}
102
{ACAD_REACTORS
330
29
102
}
330
29
100
AcDbVisualStyle
  2

 70
     2
 71
     2
 72
     2
 73
     1
 90
        2
 40
-0.6
 41
30.0
 62
     5
 63
     7
 74
     0
 91
        0
 64
     7
 65
   257
 75
     1
175
     1
 42
1.0
 92
        0
 66
     7
 43
1.0
 76
     1
 77
     6
 78
     2
 67
     7
 79
     5
170
     0
171
     0
290
     0
174
     0
 93
       13
 44
0.0
173
     0
291
     1
 45
0.0
1001
ACAD
1000
AcDbSavedByObjectVersion
1070
     0
  0
VISUALSTYLE
  5
2D
102
{ACAD_XDICTIONARY
360
1196
102
}
102
{ACAD_REACTORS
330
29
102
}
330
29
100
AcDbVisualStyle
  2

 70
     3
 71
     2
 72
     2
 73
     1
 90
        2
 40
-0.6
 41
30.0
 62
     5
 63
     7
 74
     1
 91
        0
 64
     7
 65
   257
 75
     1
175
     1
 42
1.0
 92
        0
 66
   257
 43
1.0
 76
     1
 77
     6
 78
     2
 67
     7
 79
     5
170
     0
171
     0
290
     0
174
     0
 93
       13
 44
0.0
173
     0
291
     1
 45
0.0
1001
ACAD
1000
AcDbSavedByObjectVersion
1070
     0
  0
VISUALSTYLE
  5
31
102
{ACAD_XDICTIONARY
360
119E
102
}
102
{ACAD_REACTORS
330
29
102
}
330
29
100
AcDbVisualStyle
  2

 70
     6
 71
     1
 72
     2
 73
     2
 90
        0
 40
-0.6
 41
-30.0
 62
     5
 63
     7
 74
     2
 91
        2
 64
     7
 65
   257
 75
     2
175
     1
 42
40.0
 92
        0
 66
   257
 43
1.0
 76
     1
 77
     6
 78
     2
 67
     7
 79
     3
170
     0
171
     0
290
     0
174
     0
 93
        1
 44
0.0
173
     0
291
     0
 45
0.0
1001
ACAD
1000
AcDbSavedByObjectVersion
1070
     0
  0
VISUALSTYLE
  5
3F
102
{ACAD_XDICTIONARY
360
11BA
102
}
102
{ACAD_REACTORS
330
29
102
}
330
29
100
AcDbVisualStyle
  2

 70
    20
 71
     2
 72
     2
 73
     0
 90
        0
 40
-0.6
 41
-30.0
 62
     5
 63
     7
 74
     1
 91
        4
 64
     7
 65
   257
 75
     1
175
     1
 42
1.0
 92
       10
 66
     7
 43
1.0
 76
     1
 77
     6
 78
     2
 67
     7
 79
     5
170
     0
171
     0
290
     0
174
     0
 93
        1
 44
0.0
173
     0
291
     1
 45
0.0
1001
ACAD
1000
AcDbSavedByObjectVersion
1070
     0
  0
VISUALSTYLE
  5
37
102
{ACAD_XDICTIONARY
360
11AA
102
}
102
{ACAD_REACTORS
330
29
102
}
330
29
100
AcDbVisualStyle
  2

 70
    14
 71
     2
 72
     2
 73
     0
 90
        0
 40
-0.6
 41
-30.0
 62
     5
 63
     7
 74
     1
 91
        4
 64
     7
 65
   257
 75
     7
175
     7
 42
1.0
 92
        8
 66
     7
 43
1.0
 76
     1
 77
     6
 78
     2
 67
     7
 79
     5
170
     0
171
     0
290
     0
174
     0
 93
        1
 44
0.0
173
     0
291
     1
 45
0.0
1001
ACAD
1000
AcDbSavedByObjectVersion
1070
     0
  0
VISUALSTYLE
  5
40
102
{ACAD_XDICTIONARY
360
11BC
102
}
102
{ACAD_REACTORS
330
29
102
}
330
29
100
AcDbVisualStyle
  2

 70
    21
 71
     2
 72
     2
 73
     0
 90
        0
 40
-0.6
 41
-30.0
 62
     5
 63
     7
 74
     1
 91
        4
 64
     7
 65
   257
 75
     1
175
     1
 42
1.0
 92
        9
 66
     7
 43
1.0
 76
     1
 77
     6
 78
     2
 67
     7
 79
     5
170
     0
171
     0
290
     0
174
     0
 93
        1
 44
0.0
173
     0
291
     1
 45
0.0
1001
ACAD
1000
AcDbSavedByObjectVersion
1070
     0
  0
VISUALSTYLE
  5
33
102
{ACAD_XDICTIONARY
360
11A2
102
}
102
{ACAD_REACTORS
330
29
102
}
330
29
100
AcDbVisualStyle
  2

 70
     8
 71
     2
 72
     3
 73
     0
 90
        2
 40
-0.6
 41
30.0
 62
     5
 63
     7
 74
     0
 91
        0
 64
     7
 65
   257
 75
     1
175
     1
 42
1.0
 92
        8
 66
   257
 43
1.0
 76
     1
 77
     6
 78
     2
 67
     7
 79
     3
170
     0
171
     0
290
     0
174
     0
 93
       13
 44
0.0
173
     0
291
     0
 45
0.0
1001
ACAD
1000
AcDbSavedByObjectVersion
1070
     0
  0
VISUALSTYLE
  5
3E
102
{ACAD_XDICTIONARY
360
11B8
102
}
102
{ACAD_REACTORS
330
29
102
}
330
29
100
AcDbVisualStyle
  2

 70
    27
 71
     2
 72
     2
 73
     1
 90
        2
 40
-0.6
 41
30.0
 62
     5
 63
     7
 74
     0
 91
        4
 64
     7
 65
   257
 75
     1
175
     1
 42
1.0
 92
        8
 66
   257
 43
1.0
 76
     1
 77
     6
 78
     2
 67
     8
 79
     3
170
     0
171
     0
290
     0
174
     0
 93
        5
 44
0.0
173
     0
291
     0
 45
0.0
1001
ACAD
1000
AcDbSavedByObjectVersion
1070
     0
  0
VISUALSTYLE
  5
3D
102
{ACAD_XDICTIONARY
360
11B6
102
}
102
{ACAD_REACTORS
330
29
102
}
330
29
100
AcDbVisualStyle
  2

 70
    26
 71
     2
 72
     2
 73
     1
 90
        2
 40
-0.6
 41
30.0
 62
     5
 63
     7
 74
     1
 91
       10
 64
     7
 65
   257
 75
     2
175
     1
 42
1.0
 92
        8
 66
   257
 43
1.0
 76
     1
 77
     6
 78
     2
 67
     7
 79
     3
170
     0
171
     0
290
     0
174
     0
 93
        5
 44
0.0
173
     0
291
     0
 45
0.0
1001
ACAD
1000
AcDbSavedByObjectVersion
1070
     0
  0
VISUALSTYLE
  5
3A
102
{ACAD_XDICTIONARY
360
11B0
102
}
102
{ACAD_REACTORS
330
29
102
}
330
29
100
AcDbVisualStyle
  2

 70
    23
 71
     2
 72
     2
 73
     3
 90
        0
 40
-0.6
 41
-30.0
 62
     5
 63
     7
 74
     2
 91
        2
 64
     7
 65
     7
 75
     1
175
     1
 42
40.0
 92
        8
 66
     7
 43
1.0
 76
     1
 77
     6
 78
     2
 67
     7
 79
     3
170
     0
171
     0
290
     0
174
     0
 93
        1
 44
0.0
173
     0
291
     0
 45
0.0
1001
ACAD
1000
AcDbSavedByObjectVersion
1070
     0
  0
VISUALSTYLE
  5
3B
102
{ACAD_XDICTIONARY
360
11B2
102
}
102
{ACAD_REACTORS
330
29
102
}
330
29
100
AcDbVisualStyle
  2

 70
    24
 71
     1
 72
     2
 73
     2
 90
        0
 40
-0.6
 41
-30.0
 62
     5
 63
     7
 74
     2
 91
        2
 64
     7
 65
     7
 75
     1
175
     1
 42
40.0
 92
       11
 66
     7
 43
1.0
 76
     1
 77
     6
 78
     2
 67
     7
 79
     6
170
     0
171
     0
290
     0
174
     0
 93
        1
 44
0.0
173
     0
291
     0
 45
0.0
1001
ACAD
1000
AcDbSavedByObjectVersion
1070
     0
  0
VISUALSTYLE
  5
36
102
{ACAD_XDICTIONARY
360
11A8
102
}
102
{ACAD_REACTORS
330
29
102
}
330
29
100
AcDbVisualStyle
  2

 70
    13
 71
     2
 72
     2
 73
     0
 90
        0
 40
-0.6
 41
-30.0
 62
     5
 63
     7
 74
     1
 91
        4
 64
     7
 65
   257
 75
     1
175
     1
 42
1.0
 92
       12
 66
     7
 43
1.0
 76
     1
 77
     6
 78
     2
 67
     7
 79
     5
170
     0
171
     0
290
     0
174
     0
 93
        1
 44
0.0
173
     0
291
     1
 45
0.0
1001
ACAD
1000
AcDbSavedByObjectVersion
1070
     0
  0
VISUALSTYLE
  5
30
102
{ACAD_XDICTIONARY
360
119C
102
}
102
{ACAD_REACTORS
330
29
102
}
330
29
100
AcDbVisualStyle
  2

 70
     5
 71
     0
 72
     2
 73
     0
 90
        0
 40
-0.6
 41
-30.0
 62
     5
 63
     7
 74
     1
 91
        4
 64
     7
 65
   257
 75
     1
175
     1
 42
1.0
 92
        0
 66
   257
 43
1.0
 76
     1
 77
     6
 78
     2
 67
     7
 79
     3
170
     0
171
     0
290
     0
174
     0
 93
        1
 44
0.0
173
     0
291
     0
 45
0.0
1001
ACAD
1000
AcDbSavedByObjectVersion
1070
     0
  0
VISUALSTYLE
  5
3C
102
{ACAD_XDICTIONARY
360
11B4
102
}
102
{ACAD_REACTORS
330
29
102
}
330
29
100
AcDbVisualStyle
  2

 70
    25
 71
     2
 72
     2
 73
     1
 90
        1
 40
0.5
 41
-30.0
 62
     5
 63
     7
 74
     1
 91
        0
 64
     7
 65
   257
 75
     1
175
     1
 42
1.0
 92
        8
 66
     7
 43
1.0
 76
     1
 77
     6
 78
     2
 67
     7
 79
     3
170
     0
171
     0
290
     0
174
     0
 93
       13
 44
0.0
173
     0
291
     0
 45
0.0
1001
ACAD
1000
AcDbSavedByObjectVersion
1070
     0
  0
DICTIONARYVAR
  5
81C
102
{ACAD_REACTORS
330
819
102
}
330
819
100
DictionaryVariables
280
     0
  1
1:1
  0
DICTIONARYVAR
  5
81B
102
{ACAD_REACTORS
330
819
102
}
330
819
100
DictionaryVariables
280
     0
  1
STANDARD
  0
DICTIONARYVAR
  5
81A
102
{ACAD_REACTORS
330
819
102
}
330
819
100
DictionaryVariables
280
     0
  1
STANDARD
  0
DICTIONARYVAR
  5
81F
102
{ACAD_REACTORS
330
819
102
}
330
819
100
DictionaryVariables
280
     0
  1
1
  0
DICTIONARYVAR
  5
81E
102
{ACAD_REACTORS
330
819
102
}
330
819
100
DictionaryVariables
280
     0
  1
0
  0
DICTIONARYVAR
  5
102A
102
{ACAD_REACTORS
330
819
102
}
330
819
100
DictionaryVariables
280
     0
  1
1.570796
  0
DICTIONARYVAR
  5
102B
102
{ACAD_REACTORS
330
819
102
}
330
819
100
DictionaryVariables
280
     0
  1
1.570796
  0
DICTIONARYVAR
  5
81D
102
{ACAD_REACTORS
330
819
102
}
330
819
100
DictionaryVariables
280
     0
  1
127
  0
DICTIONARYVAR
  5
102C
102
{ACAD_REACTORS
330
819
102
}
330
819
100
DictionaryVariables
280
     0
  1
2
  0
DICTIONARY
  5
11C3
330
6E
100
AcDbDictionary
280
     1
281
     1
  3
ACAD_XREC_ROUNDTRIP
360
11C4
  0
DICTIONARY
  5
11C1
330
6A
100
AcDbDictionary
280
     1
281
     1
  3
ACAD_XREC_ROUNDTRIP
360
11C2
  0
DICTIONARY
  5
1A
330
19
100
AcDbDictionary
280
     1
281
     1
  3
ACAD_XREC_ROUNDTRIP
360
82A
  3
BUMPTILE
360
1C
  3
DIFFUSETILE
360
1B
  3
OPACITYTILE
360
1F
  3
REFLECTIONTILE
360
1E
  3
REFRACTIONTILE
360
20
  3
SPECULARTILE
360
1D
  0
DICTIONARY
  5
12
330
11
100
AcDbDictionary
280
     1
281
     1
  3
ACAD_XREC_ROUNDTRIP
360
829
  3
BUMPTILE
360
14
  3
DIFFUSETILE
360
13
  3
OPACITYTILE
360
17
  3
REFLECTIONTILE
360
16
  3
REFRACTIONTILE
360
18
  3
SPECULARTILE
360
15
  0
DICTIONARY
  5
22
330
21
100
AcDbDictionary
280
     1
281
     1
  3
ACAD_XREC_ROUNDTRIP
360
82B
  3
BUMPTILE
360
24
  3
DIFFUSETILE
360
23
  3
OPACITYTILE
360
27
  3
REFLECTIONTILE
360
26
  3
REFRACTIONTILE
360
28
  3
SPECULARTILE
360
25
  0
DICTIONARY
  5
821
330
64
100
AcDbDictionary
280
     1
281
     1
  3
ACAD_ROUNDTRIP_2008_TABLESTYLE_CELLSTYLEMAP
360
1188
  3
ACAD_XREC_ROUNDTRIP
360
11C0
  0
DICTIONARY
  5
119A
330
2F
100
AcDbDictionary
280
     1
281
     1
  3
ACAD_XREC_ROUNDTRIP
360
119B
  0
DICTIONARY
  5
11C7
330
86A
100
AcDbDictionary
280
     1
281
     1
  3
ACAD_XREC_ROUNDTRIP
360
11C8
  0
DICTIONARY
  5
11C5
330
622
100
AcDbDictionary
280
     1
281
     1
  3
ACAD_XREC_ROUNDTRIP
360
11C6
  0
DICTIONARY
  5
1198
330
2E
100
AcDbDictionary
280
     1
281
     1
  3
ACAD_XREC_ROUNDTRIP
360
1199
  0
DICTIONARY
  5
11A6
330
35
100
AcDbDictionary
280
     1
281
     1
  3
ACAD_XREC_ROUNDTRIP
360
11A7
  0
DICTIONARY
  5
11AE
330
39
100
AcDbDictionary
280
     1
281
     1
  3
ACAD_XREC_ROUNDTRIP
360
11AF
  0
DICTIONARY
  5
11A0
330
32
100
AcDbDictionary
280
     1
281
     1
  3
ACAD_XREC_ROUNDTRIP
360
11A1
  0
DICTIONARY
  5
11A4
330
34
100
AcDbDictionary
280
     1
281
     1
  3
ACAD_XREC_ROUNDTRIP
360
11A5
  0
DICTIONARY
  5
11BE
330
41
100
AcDbDictionary
280
     1
281
     1
  3
ACAD_XREC_ROUNDTRIP
360
11BF
  0
DICTIONARY
  5
11AC
330
38
100
AcDbDictionary
280
     1
281
     1
  3
ACAD_XREC_ROUNDTRIP
360
11AD
  0
DICTIONARY
  5
1190
330
2A
100
AcDbDictionary
280
     1
281
     1
  3
ACAD_XREC_ROUNDTRIP
360
1191
  0
DICTIONARY
  5
1192
330
2B
100
AcDbDictionary
280
     1
281
     1
  3
ACAD_XREC_ROUNDTRIP
360
1193
  0
DICTIONARY
  5
1194
330
2C
100
AcDbDictionary
280
     1
281
     1
  3
ACAD_XREC_ROUNDTRIP
360
1195
  0
DICTIONARY
  5
1196
330
2D
100
AcDbDictionary
280
     1
281
     1
  3
ACAD_XREC_ROUNDTRIP
360
1197
  0
DICTIONARY
  5
119E
330
31
100
AcDbDictionary
280
     1
281
     1
  3
ACAD_XREC_ROUNDTRIP
360
119F
  0
DICTIONARY
  5
11BA
330
3F
100
AcDbDictionary
280
     1
281
     1
  3
ACAD_XREC_ROUNDTRIP
360
11BB
  0
DICTIONARY
  5
11AA
330
37
100
AcDbDictionary
280
     1
281
     1
  3
ACAD_XREC_ROUNDTRIP
360
11AB
  0
DICTIONARY
  5
11BC
330
40
100
AcDbDictionary
280
     1
281
     1
  3
ACAD_XREC_ROUNDTRIP
360
11BD
  0
DICTIONARY
  5
11A2
330
33
100
AcDbDictionary
280
     1
281
     1
  3
ACAD_XREC_ROUNDTRIP
360
11A3
  0
DICTIONARY
  5
11B8
330
3E
100
AcDbDictionary
280
     1
281
     1
  3
ACAD_XREC_ROUNDTRIP
360
11B9
  0
DICTIONARY
  5
11B6
330
3D
100
AcDbDictionary
280
     1
281
     1
  3
ACAD_XREC_ROUNDTRIP
360
11B7
  0
DICTIONARY
  5
11B0
330
3A
100
AcDbDictionary
280
     1
281
     1
  3
ACAD_XREC_ROUNDTRIP
360
11B1
  0
DICTIONARY
  5
11B2
330
3B
100
AcDbDictionary
280
     1
281
     1
  3
ACAD_XREC_ROUNDTRIP
360
11B3
  0
DICTIONARY
  5
11A8
330
36
100
AcDbDictionary
280
     1
281
     1
  3
ACAD_XREC_ROUNDTRIP
360
11A9
  0
DICTIONARY
  5
119C
330
30
100
AcDbDictionary
280
     1
281
     1
  3
ACAD_XREC_ROUNDTRIP
360
119D
  0
DICTIONARY
  5
11B4
330
3C
100
AcDbDictionary
280
     1
281
     1
  3
ACAD_XREC_ROUNDTRIP
360
11B5
  0
XRECORD
  5
11C4
102
{ACAD_REACTORS
330
11C3
102
}
330
11C3
100
AcDbXrecord
280
     1
102
SHADEPLOT
 70
     0
102
SHADEPLOTRESLEVEL
 70
     2
102
SHADEPLOTCUSTOMDPI
 70
   300
  0
XRECORD
  5
11C2
102
{ACAD_REACTORS
330
11C1
102
}
330
11C1
100
AcDbXrecord
280
     1
102
SHADEPLOT
 70
     0
102
SHADEPLOTRESLEVEL
 70
     2
102
SHADEPLOTCUSTOMDPI
 70
   300
  0
XRECORD
  5
82A
102
{ACAD_REACTORS
330
1A
102
}
330
1A
100
AcDbXrecord
280
     1
102
MATERIAL
148
0.0
149
0.0
149
0.0
 93
        0
 94
      127
282
     0
 72
     0
 77
     0
171
     0
175
     0
179
     0
273
     0
  0
XRECORD
  5
1C
102
{ACAD_REACTORS
330
1A
102
}
330
1A
100
AcDbXrecord
280
     1
270
     1
271
     1
  0
XRECORD
  5
1B
102
{ACAD_REACTORS
330
1A
102
}
330
1A
100
AcDbXrecord
280
     1
270
     1
271
     1
  0
XRECORD
  5
1F
102
{ACAD_REACTORS
330
1A
102
}
330
1A
100
AcDbXrecord
280
     1
270
     1
271
     1
  0
XRECORD
  5
1E
102
{ACAD_REACTORS
330
1A
102
}
330
1A
100
AcDbXrecord
280
     1
270
     1
271
     1
  0
XRECORD
  5
20
102
{ACAD_REACTORS
330
1A
102
}
330
1A
100
AcDbXrecord
280
     1
270
     1
271
     1
  0
XRECORD
  5
1D
102
{ACAD_REACTORS
330
1A
102
}
330
1A
100
AcDbXrecord
280
     1
270
     1
271
     1
  0
XRECORD
  5
829
102
{ACAD_REACTORS
330
12
102
}
330
12
100
AcDbXrecord
280
     1
102
MATERIAL
148
0.0
149
0.0
149
0.0
 93
        0
 94
      127
282
     0
 72
     0
 77
     0
171
     0
175
     0
179
     0
273
     0
  0
XRECORD
  5
14
102
{ACAD_REACTORS
330
12
102
}
330
12
100
AcDbXrecord
280
     1
270
     1
271
     1
  0
XRECORD
  5
13
102
{ACAD_REACTORS
330
12
102
}
330
12
100
AcDbXrecord
280
     1
270
     1
271
     1
  0
XRECORD
  5
17
102
{ACAD_REACTORS
330
12
102
}
330
12
100
AcDbXrecord
280
     1
270
     1
271
     1
  0
XRECORD
  5
16
102
{ACAD_REACTORS
330
12
102
}
330
12
100
AcDbXrecord
280
     1
270
     1
271
     1
  0
XRECORD
  5
18
102
{ACAD_REACTORS
330
12
102
}
330
12
100
AcDbXrecord
280
     1
270
     1
271
     1
  0
XRECORD
  5
15
102
{ACAD_REACTORS
330
12
102
}
330
12
100
AcDbXrecord
280
     1
270
     1
271
     1
  0
XRECORD
  5
82B
102
{ACAD_REACTORS
330
22
102
}
330
22
100
AcDbXrecord
280
     1
102
MATERIAL
148
0.0
149
0.0
149
0.0
 93
        0
 94
      127
282
     0
 72
     0
 77
     0
171
     0
175
     0
179
     0
273
     0
  0
XRECORD
  5
24
102
{ACAD_REACTORS
330
22
102
}
330
22
100
AcDbXrecord
280
     1
270
     1
271
     1
  0
XRECORD
  5
23
102
{ACAD_REACTORS
330
22
102
}
330
22
100
AcDbXrecord
280
     1
270
     1
271
     1
  0
XRECORD
  5
27
102
{ACAD_REACTORS
330
22
102
}
330
22
100
AcDbXrecord
280
     1
270
     1
271
     1
  0
XRECORD
  5
26
102
{ACAD_REACTORS
330
22
102
}
330
22
100
AcDbXrecord
280
     1
270
     1
271
     1
  0
XRECORD
  5
28
102
{ACAD_REACTORS
330
22
102
}
330
22
100
AcDbXrecord
280
     1
270
     1
271
     1
  0
XRECORD
  5
25
102
{ACAD_REACTORS
330
22
102
}
330
22
100
AcDbXrecord
280
     1
270
     1
271
     1
  0
CELLSTYLEMAP
  5
1188
102
{ACAD_REACTORS
330
821
102
}
330
821
100
AcDbCellStyleMap
 90
        3
300
CELLSTYLE
  1
TABLEFORMAT_BEGIN
 90
        5
170
     1
 91
        0
 92
    32768
 62
   257
 93
        1
300
CONTENTFORMAT
  1
CONTENTFORMAT_BEGIN
 90
        0
 91
        0
 92
      512
 93
        0
300

 40
0.0
140
1.0
 94
        5
 62
     0
340
55
144
0.25
309
CONTENTFORMAT_END
171
     1
301
MARGIN
  1
CELLMARGIN_BEGIN
 40
0.06
 40
0.06
 40
0.06
 40
0.06
 40
0.18
 40
0.18
309
CELLMARGIN_END
 94
        6
 95
        1
302
GRIDFORMAT
  1
GRIDFORMAT_BEGIN
 90
        0
 91
        1
 62
     0
 92
       -2
340
0
 93
        0
 40
0.045
309
GRIDFORMAT_END
 95
        2
302
GRIDFORMAT
  1
GRIDFORMAT_BEGIN
 90
        0
 91
        1
 62
     0
 92
       -2
340
0
 93
        0
 40
0.045
309
GRIDFORMAT_END
 95
        4
302
GRIDFORMAT
  1
GRIDFORMAT_BEGIN
 90
        0
 91
        1
 62
     0
 92
       -2
340
0
 93
        0
 40
0.045
309
GRIDFORMAT_END
 95
        8
302
GRIDFORMAT
  1
GRIDFORMAT_BEGIN
 90
        0
 91
        1
 62
     0
 92
       -2
340
0
 93
        0
 40
0.045
309
GRIDFORMAT_END
 95
       16
302
GRIDFORMAT
  1
GRIDFORMAT_BEGIN
 90
        0
 91
        1
 62
     0
 92
       -2
340
0
 93
        0
 40
0.045
309
GRIDFORMAT_END
 95
       32
302
GRIDFORMAT
  1
GRIDFORMAT_BEGIN
 90
        0
 91
        1
 62
     0
 92
       -2
340
0
 93
        0
 40
0.045
309
GRIDFORMAT_END
309
TABLEFORMAT_END
  1
CELLSTYLE_BEGIN
 90
        1
 91
        1
300
_TITLE
309
CELLSTYLE_END
300
CELLSTYLE
  1
TABLEFORMAT_BEGIN
 90
        5
170
     1
 91
        0
 92
        0
 62
   257
 93
        1
300
CONTENTFORMAT
  1
CONTENTFORMAT_BEGIN
 90
        0
 91
        0
 92
      512
 93
        0
300

 40
0.0
140
1.0
 94
        5
 62
     0
340
55
144
0.18
309
CONTENTFORMAT_END
171
     1
301
MARGIN
  1
CELLMARGIN_BEGIN
 40
0.06
 40
0.06
 40
0.06
 40
0.06
 40
0.18
 40
0.18
309
CELLMARGIN_END
 94
        6
 95
        1
302
GRIDFORMAT
  1
GRIDFORMAT_BEGIN
 90
        0
 91
        1
 62
     0
 92
       -2
340
0
 93
        0
 40
0.045
309
GRIDFORMAT_END
 95
        2
302
GRIDFORMAT
  1
GRIDFORMAT_BEGIN
 90
        0
 91
        1
 62
     0
 92
       -2
340
0
 93
        0
 40
0.045
309
GRIDFORMAT_END
 95
        4
302
GRIDFORMAT
  1
GRIDFORMAT_BEGIN
 90
        0
 91
        1
 62
     0
 92
       -2
340
0
 93
        0
 40
0.045
309
GRIDFORMAT_END
 95
        8
302
GRIDFORMAT
  1
GRIDFORMAT_BEGIN
 90
        0
 91
        1
 62
     0
 92
       -2
340
0
 93
        0
 40
0.045
309
GRIDFORMAT_END
 95
       16
302
GRIDFORMAT
  1
GRIDFORMAT_BEGIN
 90
        0
 91
        1
 62
     0
 92
       -2
340
0
 93
        0
 40
0.045
309
GRIDFORMAT_END
 95
       32
302
GRIDFORMAT
  1
GRIDFORMAT_BEGIN
 90
        0
 91
        1
 62
     0
 92
       -2
340
0
 93
        0
 40
0.045
309
GRIDFORMAT_END
309
TABLEFORMAT_END
  1
CELLSTYLE_BEGIN
 90
        2
 91
        1
300
_HEADER
309
CELLSTYLE_END
300
CELLSTYLE
  1
TABLEFORMAT_BEGIN
 90
        5
170
     1
 91
        0
 92
        0
 62
   257
 93
        1
300
CONTENTFORMAT
  1
CONTENTFORMAT_BEGIN
 90
        0
 91
        0
 92
      512
 93
        0
300

 40
0.0
140
1.0
 94
        2
 62
     0
340
55
144
0.18
309
CONTENTFORMAT_END
171
     1
301
MARGIN
  1
CELLMARGIN_BEGIN
 40
0.06
 40
0.06
 40
0.06
 40
0.06
 40
0.18
 40
0.18
309
CELLMARGIN_END
 94
        6
 95
        1
302
GRIDFORMAT
  1
GRIDFORMAT_BEGIN
 90
        0
 91
        1
 62
     0
 92
       -2
340
0
 93
        0
 40
0.045
309
GRIDFORMAT_END
 95
        2
302
GRIDFORMAT
  1
GRIDFORMAT_BEGIN
 90
        0
 91
        1
 62
     0
 92
       -2
340
0
 93
        0
 40
0.045
309
GRIDFORMAT_END
 95
        4
302
GRIDFORMAT
  1
GRIDFORMAT_BEGIN
 90
        0
 91
        1
 62
     0
 92
       -2
340
0
 93
        0
 40
0.045
309
GRIDFORMAT_END
 95
        8
302
GRIDFORMAT
  1
GRIDFORMAT_BEGIN
 90
        0
 91
        1
 62
     0
 92
       -2
340
0
 93
        0
 40
0.045
309
GRIDFORMAT_END
 95
       16
302
GRIDFORMAT
  1
GRIDFORMAT_BEGIN
 90
        0
 91
        1
 62
     0
 92
       -2
340
0
 93
        0
 40
0.045
309
GRIDFORMAT_END
 95
       32
302
GRIDFORMAT
  1
GRIDFORMAT_BEGIN
 90
        0
 91
        1
 62
     0
 92
       -2
340
0
 93
        0
 40
0.045
309
GRIDFORMAT_END
309
TABLEFORMAT_END
  1
CELLSTYLE_BEGIN
 90
        3
 91
        2
300
_DATA
309
CELLSTYLE_END
  0
XRECORD
  5
11C0
102
{ACAD_REACTORS
330
821
102
}
330
821
100
AcDbXrecord
280
     1
102
ACAD_ROUNDTRIP_PRE2007_TABLESTYLE
 90
      512
 91
        0
  1

 92
      512
 93
        0
  2

 94
      512
 95
        0
  3

  0
XRECORD
  5
119B
102
{ACAD_REACTORS
330
119A
102
}
330
119A
100
AcDbXrecord
280
     1
102
RTVSPropertyOp0
 70
     1
102
RTVSPropertyOp1
 70
     1
102
RTVSPropertyOp2
 70
     1
102
RTVSPropertyOp3
 70
     1
102
RTVSPropertyOp4
 70
     1
102
RTVSPropertyOp5
 70
     1
102
RTVSPropertyOp6
 70
     1
102
RTVSPropertyOp7
 70
     1
102
RTVSPropertyOp8
 70
     1
102
RTVSPropertyOp9
 70
     1
102
RTVSPropertyOp10
 70
     1
102
RTVSPropertyOp11
 70
     1
102
RTVSPropertyOp12
 70
     1
102
RTVSPropertyOp13
 70
     1
102
RTVSPropertyOp14
 70
     1
102
RTVSPropertyOp15
 70
     1
102
RTVSPropertyOp16
 70
     1
102
RTVSPropertyOp17
 70
     1
102
RTVSPropertyOp18
 70
     1
102
RTVSPropertyOp19
 70
     1
102
RTVSPropertyOp20
 70
     1
102
RTVSPropertyOp21
 70
     1
102
RTVSPropertyOp22
 70
     1
102
RTVSPropertyOp23
 70
     1
102
RTVSPropertyOp24
 70
     1
102
RTVSPropertyOp25
 70
     1
102
RTVSPropertyOp26
 70
     1
102
RTVSPropertyOp27
 70
     1
102
RTVSPropertyOp28
 70
     1
102
RTVSPropertyOp29
 70
     1
102
RTVSPropertyOp30
 70
     1
102
RTVSPropertyOp31
 70
     1
102
RTVSPropertyOp32
 70
     1
  0
XRECORD
  5
11C8
102
{ACAD_REACTORS
330
11C7
102
}
330
11C7
100
AcDbXrecord
280
     1
102
RTVSPropertyOp0
 70
     1
102
RTVSPropertyOp1
 70
     1
102
RTVSPropertyOp2
 70
     1
102
RTVSPropertyOp3
 70
     1
102
RTVSPropertyOp4
 70
     1
102
RTVSPropertyOp5
 70
     1
102
RTVSPropertyOp6
 70
     1
102
RTVSPropertyOp7
 70
     1
102
RTVSPropertyOp8
 70
     1
102
RTVSPropertyOp9
 70
     1
102
RTVSPropertyOp10
 70
     1
102
RTVSPropertyOp11
 70
     1
102
RTVSPropertyOp12
 70
     1
102
RTVSPropertyOp13
 70
     1
102
RTVSPropertyOp14
 70
     1
102
RTVSPropertyOp15
 70
     1
102
RTVSPropertyOp16
 70
     1
102
RTVSPropertyOp17
 70
     1
102
RTVSPropertyOp18
 70
     1
102
RTVSPropertyOp19
 70
     1
102
RTVSPropertyOp20
 70
     1
102
RTVSPropertyOp21
 70
     1
102
RTVSPropertyOp22
 70
     1
102
RTVSPropertyOp23
 70
     1
102
RTVSPropertyOp24
 70
     1
102
RTVSPropertyOp25
 70
     1
102
RTVSPropertyOp26
 70
     1
102
RTVSPropertyOp27
 70
     1
102
RTVSPropertyOp28
 70
     1
102
RTVSPropertyOp29
 70
     1
102
RTVSPropertyOp30
 70
     1
102
RTVSPropertyOp31
 70
     1
102
RTVSPropertyOp32
 70
     1
  0
XRECORD
  5
11C6
102
{ACAD_REACTORS
330
11C5
102
}
330
11C5
100
AcDbXrecord
280
     1
102
RTVSPropertyOp0
 70
     1
102
RTVSPropertyOp1
 70
     1
102
RTVSPropertyOp2
 70
     1
102
RTVSPropertyOp3
 70
     1
102
RTVSPropertyOp4
 70
     1
102
RTVSPropertyOp5
 70
     1
102
RTVSPropertyOp6
 70
     1
102
RTVSPropertyOp7
 70
     1
102
RTVSPropertyOp8
 70
     1
102
RTVSPropertyOp9
 70
     1
102
RTVSPropertyOp10
 70
     1
102
RTVSPropertyOp11
 70
     1
102
RTVSPropertyOp12
 70
     1
102
RTVSPropertyOp13
 70
     1
102
RTVSPropertyOp14
 70
     1
102
RTVSPropertyOp15
 70
     1
102
RTVSPropertyOp16
 70
     1
102
RTVSPropertyOp17
 70
     1
102
RTVSPropertyOp18
 70
     1
102
RTVSPropertyOp19
 70
     1
102
RTVSPropertyOp20
 70
     1
102
RTVSPropertyOp21
 70
     1
102
RTVSPropertyOp22
 70
     1
102
RTVSPropertyOp23
 70
     1
102
RTVSPropertyOp24
 70
     1
102
RTVSPropertyOp25
 70
     1
102
RTVSPropertyOp26
 70
     1
102
RTVSPropertyOp27
 70
     1
102
RTVSPropertyOp28
 70
     1
102
RTVSPropertyOp29
 70
     1
102
RTVSPropertyOp30
 70
     1
102
RTVSPropertyOp31
 70
     1
102
RTVSPropertyOp32
 70
     1
  0
XRECORD
  5
1199
102
{ACAD_REACTORS
330
1198
102
}
330
1198
100
AcDbXrecord
280
     1
102
RTVSPropertyOp0
 70
     1
102
RTVSPropertyOp1
 70
     1
102
RTVSPropertyOp2
 70
     1
102
RTVSPropertyOp3
 70
     1
102
RTVSPropertyOp4
 70
     1
102
RTVSPropertyOp5
 70
     1
102
RTVSPropertyOp6
 70
     1
102
RTVSPropertyOp7
 70
     1
102
RTVSPropertyOp8
 70
     1
102
RTVSPropertyOp9
 70
     1
102
RTVSPropertyOp10
 70
     1
102
RTVSPropertyOp11
 70
     1
102
RTVSPropertyOp12
 70
     1
102
RTVSPropertyOp13
 70
     1
102
RTVSPropertyOp14
 70
     1
102
RTVSPropertyOp15
 70
     1
102
RTVSPropertyOp16
 70
     1
102
RTVSPropertyOp17
 70
     1
102
RTVSPropertyOp18
 70
     1
102
RTVSPropertyOp19
 70
     1
102
RTVSPropertyOp20
 70
     1
102
RTVSPropertyOp21
 70
     1
102
RTVSPropertyOp22
 70
     1
102
RTVSPropertyOp23
 70
     1
102
RTVSPropertyOp24
 70
     1
102
RTVSPropertyOp25
 70
     1
102
RTVSPropertyOp26
 70
     1
102
RTVSPropertyOp27
 70
     1
102
RTVSPropertyOp28
 70
     1
102
RTVSPropertyOp29
 70
     1
102
RTVSPropertyOp30
 70
     1
102
RTVSPropertyOp31
 70
     1
102
RTVSPropertyOp32
 70
     1
  0
XRECORD
  5
11A7
102
{ACAD_REACTORS
330
11A6
102
}
330
11A6
100
AcDbXrecord
280
     1
102
RTVSPropertyOp0
 70
     1
102
RTVSPropertyOp1
 70
     1
102
RTVSPropertyOp2
 70
     1
102
RTVSPropertyOp3
 70
     1
102
RTVSPropertyOp4
 70
     1
102
RTVSPropertyOp5
 70
     1
102
RTVSPropertyOp6
 70
     1
102
RTVSPropertyOp7
 70
     1
102
RTVSPropertyOp8
 70
     1
102
RTVSPropertyOp9
 70
     1
102
RTVSPropertyOp10
 70
     1
102
RTVSPropertyOp11
 70
     1
102
RTVSPropertyOp12
 70
     1
102
RTVSPropertyOp13
 70
     1
102
RTVSPropertyOp14
 70
     1
102
RTVSPropertyOp15
 70
     1
102
RTVSPropertyOp16
 70
     1
102
RTVSPropertyOp17
 70
     1
102
RTVSPropertyOp18
 70
     1
102
RTVSPropertyOp19
 70
     1
102
RTVSPropertyOp20
 70
     1
102
RTVSPropertyOp21
 70
     1
102
RTVSPropertyOp22
 70
     1
102
RTVSPropertyOp23
 70
     1
102
RTVSPropertyOp24
 70
     1
102
RTVSPropertyOp25
 70
     1
102
RTVSPropertyOp26
 70
     1
102
RTVSPropertyOp27
 70
     1
102
RTVSPropertyOp28
 70
     1
102
RTVSPropertyOp29
 70
     1
102
RTVSPropertyOp30
 70
     1
102
RTVSPropertyOp31
 70
     1
102
RTVSPropertyOp32
 70
     1
  0
XRECORD
  5
11AF
102
{ACAD_REACTORS
330
11AE
102
}
330
11AE
100
AcDbXrecord
280
     1
102
RTVSPropertyOp0
 70
     1
102
RTVSPropertyOp1
 70
     1
102
RTVSPropertyOp2
 70
     1
102
RTVSPropertyOp3
 70
     1
102
RTVSPropertyOp4
 70
     1
102
RTVSPropertyOp5
 70
     1
102
RTVSPropertyOp6
 70
     1
102
RTVSPropertyOp7
 70
     1
102
RTVSPropertyOp8
 70
     1
102
RTVSPropertyOp9
 70
     1
102
RTVSPropertyOp10
 70
     1
102
RTVSPropertyOp11
 70
     1
102
RTVSPropertyOp12
 70
     1
102
RTVSPropertyOp13
 70
     1
102
RTVSPropertyOp14
 70
     1
102
RTVSPropertyOp15
 70
     1
102
RTVSPropertyOp16
 70
     1
102
RTVSPropertyOp17
 70
     1
102
RTVSPropertyOp18
 70
     1
102
RTVSPropertyOp19
 70
     1
102
RTVSPropertyOp20
 70
     1
102
RTVSPropertyOp21
 70
     1
102
RTVSPropertyOp22
 70
     1
102
RTVSPropertyOp23
 70
     1
102
RTVSPropertyOp24
 70
     1
102
RTVSPropertyOp25
 70
     1
102
RTVSPropertyOp26
 70
     1
102
RTVSPropertyOp27
 70
     1
102
RTVSPropertyOp28
 70
     1
102
RTVSPropertyOp29
 70
     1
102
RTVSPropertyOp30
 70
     1
102
RTVSPropertyOp31
 70
     1
102
RTVSPropertyOp32
 70
     1
  0
XRECORD
  5
11A1
102
{ACAD_REACTORS
330
11A0
102
}
330
11A0
100
AcDbXrecord
280
     1
102
RTVSPropertyOp0
 70
     1
102
RTVSPropertyOp1
 70
     1
102
RTVSPropertyOp2
 70
     1
102
RTVSPropertyOp3
 70
     1
102
RTVSPropertyOp4
 70
     1
102
RTVSPropertyOp5
 70
     1
102
RTVSPropertyOp6
 70
     1
102
RTVSPropertyOp7
 70
     1
102
RTVSPropertyOp8
 70
     1
102
RTVSPropertyOp9
 70
     1
102
RTVSPropertyOp10
 70
     1
102
RTVSPropertyOp11
 70
     1
102
RTVSPropertyOp12
 70
     1
102
RTVSPropertyOp13
 70
     1
102
RTVSPropertyOp14
 70
     1
102
RTVSPropertyOp15
 70
     1
102
RTVSPropertyOp16
 70
     1
102
RTVSPropertyOp17
 70
     1
102
RTVSPropertyOp18
 70
     1
102
RTVSPropertyOp19
 70
     1
102
RTVSPropertyOp20
 70
     1
102
RTVSPropertyOp21
 70
     1
102
RTVSPropertyOp22
 70
     1
102
RTVSPropertyOp23
 70
     1
102
RTVSPropertyOp24
 70
     1
102
RTVSPropertyOp25
 70
     1
102
RTVSPropertyOp26
 70
     1
102
RTVSPropertyOp27
 70
     1
102
RTVSPropertyOp28
 70
     1
102
RTVSPropertyOp29
 70
     1
102
RTVSPropertyOp30
 70
     1
102
RTVSPropertyOp31
 70
     1
102
RTVSPropertyOp32
 70
     1
  0
XRECORD
  5
11A5
102
{ACAD_REACTORS
330
11A4
102
}
330
11A4
100
AcDbXrecord
280
     1
102
RTVSPropertyOp0
 70
     1
102
RTVSPropertyOp1
 70
     1
102
RTVSPropertyOp2
 70
     1
102
RTVSPropertyOp3
 70
     1
102
RTVSPropertyOp4
 70
     1
102
RTVSPropertyOp5
 70
     1
102
RTVSPropertyOp6
 70
     1
102
RTVSPropertyOp7
 70
     1
102
RTVSPropertyOp8
 70
     1
102
RTVSPropertyOp9
 70
     1
102
RTVSPropertyOp10
 70
     1
102
RTVSPropertyOp11
 70
     1
102
RTVSPropertyOp12
 70
     1
102
RTVSPropertyOp13
 70
     1
102
RTVSPropertyOp14
 70
     1
102
RTVSPropertyOp15
 70
     1
102
RTVSPropertyOp16
 70
     1
102
RTVSPropertyOp17
 70
     1
102
RTVSPropertyOp18
 70
     1
102
RTVSPropertyOp19
 70
     1
102
RTVSPropertyOp20
 70
     1
102
RTVSPropertyOp21
 70
     1
102
RTVSPropertyOp22
 70
     1
102
RTVSPropertyOp23
 70
     1
102
RTVSPropertyOp24
 70
     1
102
RTVSPropertyOp25
 70
     1
102
RTVSPropertyOp26
 70
     1
102
RTVSPropertyOp27
 70
     1
102
RTVSPropertyOp28
 70
     1
102
RTVSPropertyOp29
 70
     1
102
RTVSPropertyOp30
 70
     1
102
RTVSPropertyOp31
 70
     1
102
RTVSPropertyOp32
 70
     1
  0
XRECORD
  5
11BF
102
{ACAD_REACTORS
330
11BE
102
}
330
11BE
100
AcDbXrecord
280
     1
102
RTVSPropertyOp0
 70
     0
102
RTVSPropertyOp1
 70
     0
102
RTVSPropertyOp2
 70
     0
102
RTVSPropertyOp3
 70
     0
102
RTVSPropertyOp4
 70
     0
102
RTVSPropertyOp5
 70
     0
102
RTVSPropertyOp6
 70
     0
102
RTVSPropertyOp7
 70
     0
102
RTVSPropertyOp8
 70
     0
102
RTVSPropertyOp9
 70
     0
102
RTVSPropertyOp10
 70
     0
102
RTVSPropertyOp11
 70
     0
102
RTVSPropertyOp12
 70
     0
102
RTVSPropertyOp13
 70
     0
102
RTVSPropertyOp14
 70
     2
102
RTVSPropertyOp15
 70
     0
102
RTVSPropertyOp16
 70
     0
102
RTVSPropertyOp17
 70
     0
102
RTVSPropertyOp18
 70
     0
102
RTVSPropertyOp19
 70
     0
102
RTVSPropertyOp20
 70
     0
102
RTVSPropertyOp21
 70
     0
102
RTVSPropertyOp22
 70
     0
102
RTVSPropertyOp23
 70
     0
102
RTVSPropertyOp24
 70
     0
102
RTVSPropertyOp25
 70
     0
102
RTVSPropertyOp26
 70
     0
102
RTVSPropertyOp27
 70
     0
102
RTVSPropertyOp28
 70
     0
102
RTVSPropertyOp29
 70
     0
102
RTVSPropertyOp30
 70
     0
102
RTVSPropertyOp31
 70
     0
102
RTVSPropertyOp32
 70
     0
  0
XRECORD
  5
11AD
102
{ACAD_REACTORS
330
11AC
102
}
330
11AC
100
AcDbXrecord
280
     1
102
RTVSPropertyOp0
 70
     1
102
RTVSPropertyOp1
 70
     1
102
RTVSPropertyOp2
 70
     1
102
RTVSPropertyOp3
 70
     1
102
RTVSPropertyOp4
 70
     1
102
RTVSPropertyOp5
 70
     1
102
RTVSPropertyOp6
 70
     1
102
RTVSPropertyOp7
 70
     1
102
RTVSPropertyOp8
 70
     1
102
RTVSPropertyOp9
 70
     1
102
RTVSPropertyOp10
 70
     1
102
RTVSPropertyOp11
 70
     1
102
RTVSPropertyOp12
 70
     1
102
RTVSPropertyOp13
 70
     1
102
RTVSPropertyOp14
 70
     1
102
RTVSPropertyOp15
 70
     1
102
RTVSPropertyOp16
 70
     1
102
RTVSPropertyOp17
 70
     1
102
RTVSPropertyOp18
 70
     1
102
RTVSPropertyOp19
 70
     1
102
RTVSPropertyOp20
 70
     1
102
RTVSPropertyOp21
 70
     1
102
RTVSPropertyOp22
 70
     1
102
RTVSPropertyOp23
 70
     1
102
RTVSPropertyOp24
 70
     1
102
RTVSPropertyOp25
 70
     1
102
RTVSPropertyOp26
 70
     1
102
RTVSPropertyOp27
 70
     1
102
RTVSPropertyOp28
 70
     1
102
RTVSPropertyOp29
 70
     1
102
RTVSPropertyOp30
 70
     1
102
RTVSPropertyOp31
 70
     1
102
RTVSPropertyOp32
 70
     1
  0
XRECORD
  5
1191
102
{ACAD_REACTORS
330
1190
102
}
330
1190
100
AcDbXrecord
280
     1
102
RTVSPropertyOp0
 70
     1
102
RTVSPropertyOp1
 70
     1
102
RTVSPropertyOp2
 70
     1
102
RTVSPropertyOp3
 70
     1
102
RTVSPropertyOp4
 70
     1
102
RTVSPropertyOp5
 70
     1
102
RTVSPropertyOp6
 70
     1
102
RTVSPropertyOp7
 70
     1
102
RTVSPropertyOp8
 70
     1
102
RTVSPropertyOp9
 70
     1
102
RTVSPropertyOp10
 70
     1
102
RTVSPropertyOp11
 70
     1
102
RTVSPropertyOp12
 70
     1
102
RTVSPropertyOp13
 70
     1
102
RTVSPropertyOp14
 70
     1
102
RTVSPropertyOp15
 70
     1
102
RTVSPropertyOp16
 70
     1
102
RTVSPropertyOp17
 70
     1
102
RTVSPropertyOp18
 70
     1
102
RTVSPropertyOp19
 70
     1
102
RTVSPropertyOp20
 70
     1
102
RTVSPropertyOp21
 70
     1
102
RTVSPropertyOp22
 70
     1
102
RTVSPropertyOp23
 70
     1
102
RTVSPropertyOp24
 70
     1
102
RTVSPropertyOp25
 70
     1
102
RTVSPropertyOp26
 70
     1
102
RTVSPropertyOp27
 70
     1
102
RTVSPropertyOp28
 70
     1
102
RTVSPropertyOp29
 70
     1
102
RTVSPropertyOp30
 70
     1
102
RTVSPropertyOp31
 70
     1
102
RTVSPropertyOp32
 70
     1
  0
XRECORD
  5
1193
102
{ACAD_REACTORS
330
1192
102
}
330
1192
100
AcDbXrecord
280
     1
102
RTVSPropertyOp0
 70
     1
102
RTVSPropertyOp1
 70
     1
102
RTVSPropertyOp2
 70
     1
102
RTVSPropertyOp3
 70
     1
102
RTVSPropertyOp4
 70
     1
102
RTVSPropertyOp5
 70
     1
102
RTVSPropertyOp6
 70
     1
102
RTVSPropertyOp7
 70
     1
102
RTVSPropertyOp8
 70
     1
102
RTVSPropertyOp9
 70
     1
102
RTVSPropertyOp10
 70
     1
102
RTVSPropertyOp11
 70
     1
102
RTVSPropertyOp12
 70
     1
102
RTVSPropertyOp13
 70
     1
102
RTVSPropertyOp14
 70
     1
102
RTVSPropertyOp15
 70
     1
102
RTVSPropertyOp16
 70
     1
102
RTVSPropertyOp17
 70
     1
102
RTVSPropertyOp18
 70
     1
102
RTVSPropertyOp19
 70
     1
102
RTVSPropertyOp20
 70
     1
102
RTVSPropertyOp21
 70
     1
102
RTVSPropertyOp22
 70
     1
102
RTVSPropertyOp23
 70
     1
102
RTVSPropertyOp24
 70
     1
102
RTVSPropertyOp25
 70
     1
102
RTVSPropertyOp26
 70
     1
102
RTVSPropertyOp27
 70
     1
102
RTVSPropertyOp28
 70
     1
102
RTVSPropertyOp29
 70
     1
102
RTVSPropertyOp30
 70
     1
102
RTVSPropertyOp31
 70
     1
102
RTVSPropertyOp32
 70
     1
  0
XRECORD
  5
1195
102
{ACAD_REACTORS
330
1194
102
}
330
1194
100
AcDbXrecord
280
     1
102
RTVSPropertyOp0
 70
     1
102
RTVSPropertyOp1
 70
     1
102
RTVSPropertyOp2
 70
     1
102
RTVSPropertyOp3
 70
     1
102
RTVSPropertyOp4
 70
     1
102
RTVSPropertyOp5
 70
     1
102
RTVSPropertyOp6
 70
     1
102
RTVSPropertyOp7
 70
     1
102
RTVSPropertyOp8
 70
     1
102
RTVSPropertyOp9
 70
     1
102
RTVSPropertyOp10
 70
     1
102
RTVSPropertyOp11
 70
     1
102
RTVSPropertyOp12
 70
     1
102
RTVSPropertyOp13
 70
     1
102
RTVSPropertyOp14
 70
     1
102
RTVSPropertyOp15
 70
     1
102
RTVSPropertyOp16
 70
     1
102
RTVSPropertyOp17
 70
     1
102
RTVSPropertyOp18
 70
     1
102
RTVSPropertyOp19
 70
     1
102
RTVSPropertyOp20
 70
     1
102
RTVSPropertyOp21
 70
     1
102
RTVSPropertyOp22
 70
     1
102
RTVSPropertyOp23
 70
     1
102
RTVSPropertyOp24
 70
     1
102
RTVSPropertyOp25
 70
     1
102
RTVSPropertyOp26
 70
     1
102
RTVSPropertyOp27
 70
     1
102
RTVSPropertyOp28
 70
     1
102
RTVSPropertyOp29
 70
     1
102
RTVSPropertyOp30
 70
     1
102
RTVSPropertyOp31
 70
     1
102
RTVSPropertyOp32
 70
     1
  0
XRECORD
  5
1197
102
{ACAD_REACTORS
330
1196
102
}
330
1196
100
AcDbXrecord
280
     1
102
RTVSPropertyOp0
 70
     1
102
RTVSPropertyOp1
 70
     1
102
RTVSPropertyOp2
 70
     1
102
RTVSPropertyOp3
 70
     1
102
RTVSPropertyOp4
 70
     1
102
RTVSPropertyOp5
 70
     1
102
RTVSPropertyOp6
 70
     1
102
RTVSPropertyOp7
 70
     1
102
RTVSPropertyOp8
 70
     1
102
RTVSPropertyOp9
 70
     1
102
RTVSPropertyOp10
 70
     1
102
RTVSPropertyOp11
 70
     1
102
RTVSPropertyOp12
 70
     1
102
RTVSPropertyOp13
 70
     1
102
RTVSPropertyOp14
 70
     1
102
RTVSPropertyOp15
 70
     1
102
RTVSPropertyOp16
 70
     1
102
RTVSPropertyOp17
 70
     1
102
RTVSPropertyOp18
 70
     1
102
RTVSPropertyOp19
 70
     1
102
RTVSPropertyOp20
 70
     1
102
RTVSPropertyOp21
 70
     1
102
RTVSPropertyOp22
 70
     1
102
RTVSPropertyOp23
 70
     1
102
RTVSPropertyOp24
 70
     1
102
RTVSPropertyOp25
 70
     1
102
RTVSPropertyOp26
 70
     1
102
RTVSPropertyOp27
 70
     1
102
RTVSPropertyOp28
 70
     1
102
RTVSPropertyOp29
 70
     1
102
RTVSPropertyOp30
 70
     1
102
RTVSPropertyOp31
 70
     1
102
RTVSPropertyOp32
 70
     1
  0
XRECORD
  5
119F
102
{ACAD_REACTORS
330
119E
102
}
330
119E
100
AcDbXrecord
280
     1
102
RTVSPropertyOp0
 70
     1
102
RTVSPropertyOp1
 70
     1
102
RTVSPropertyOp2
 70
     1
102
RTVSPropertyOp3
 70
     1
102
RTVSPropertyOp4
 70
     1
102
RTVSPropertyOp5
 70
     1
102
RTVSPropertyOp6
 70
     1
102
RTVSPropertyOp7
 70
     1
102
RTVSPropertyOp8
 70
     1
102
RTVSPropertyOp9
 70
     1
102
RTVSPropertyOp10
 70
     1
102
RTVSPropertyOp11
 70
     1
102
RTVSPropertyOp12
 70
     1
102
RTVSPropertyOp13
 70
     1
102
RTVSPropertyOp14
 70
     1
102
RTVSPropertyOp15
 70
     1
102
RTVSPropertyOp16
 70
     1
102
RTVSPropertyOp17
 70
     1
102
RTVSPropertyOp18
 70
     1
102
RTVSPropertyOp19
 70
     1
102
RTVSPropertyOp20
 70
     1
102
RTVSPropertyOp21
 70
     1
102
RTVSPropertyOp22
 70
     1
102
RTVSPropertyOp23
 70
     1
102
RTVSPropertyOp24
 70
     1
102
RTVSPropertyOp25
 70
     1
102
RTVSPropertyOp26
 70
     1
102
RTVSPropertyOp27
 70
     1
102
RTVSPropertyOp28
 70
     1
102
RTVSPropertyOp29
 70
     1
102
RTVSPropertyOp30
 70
     1
102
RTVSPropertyOp31
 70
     1
102
RTVSPropertyOp32
 70
     1
  0
XRECORD
  5
11BB
102
{ACAD_REACTORS
330
11BA
102
}
330
11BA
100
AcDbXrecord
280
     1
102
RTVSPropertyOp0
 70
     0
102
RTVSPropertyOp1
 70
     0
102
RTVSPropertyOp2
 70
     0
102
RTVSPropertyOp3
 70
     0
102
RTVSPropertyOp4
 70
     0
102
RTVSPropertyOp5
 70
     0
102
RTVSPropertyOp6
 70
     0
102
RTVSPropertyOp7
 70
     0
102
RTVSPropertyOp8
 70
     0
102
RTVSPropertyOp9
 70
     0
102
RTVSPropertyOp10
 70
     0
102
RTVSPropertyOp11
 70
     0
102
RTVSPropertyOp12
 70
     0
102
RTVSPropertyOp13
 70
     0
102
RTVSPropertyOp14
 70
     2
102
RTVSPropertyOp15
 70
     0
102
RTVSPropertyOp16
 70
     0
102
RTVSPropertyOp17
 70
     0
102
RTVSPropertyOp18
 70
     0
102
RTVSPropertyOp19
 70
     0
102
RTVSPropertyOp20
 70
     0
102
RTVSPropertyOp21
 70
     0
102
RTVSPropertyOp22
 70
     0
102
RTVSPropertyOp23
 70
     0
102
RTVSPropertyOp24
 70
     0
102
RTVSPropertyOp25
 70
     0
102
RTVSPropertyOp26
 70
     0
102
RTVSPropertyOp27
 70
     0
102
RTVSPropertyOp28
 70
     0
102
RTVSPropertyOp29
 70
     0
102
RTVSPropertyOp30
 70
     0
102
RTVSPropertyOp31
 70
     0
102
RTVSPropertyOp32
 70
     0
  0
XRECORD
  5
11AB
102
{ACAD_REACTORS
330
11AA
102
}
330
11AA
100
AcDbXrecord
280
     1
102
RTVSPropertyOp0
 70
     1
102
RTVSPropertyOp1
 70
     1
102
RTVSPropertyOp2
 70
     1
102
RTVSPropertyOp3
 70
     1
102
RTVSPropertyOp4
 70
     1
102
RTVSPropertyOp5
 70
     1
102
RTVSPropertyOp6
 70
     1
102
RTVSPropertyOp7
 70
     1
102
RTVSPropertyOp8
 70
     1
102
RTVSPropertyOp9
 70
     1
102
RTVSPropertyOp10
 70
     1
102
RTVSPropertyOp11
 70
     1
102
RTVSPropertyOp12
 70
     1
102
RTVSPropertyOp13
 70
     1
102
RTVSPropertyOp14
 70
     1
102
RTVSPropertyOp15
 70
     1
102
RTVSPropertyOp16
 70
     1
102
RTVSPropertyOp17
 70
     1
102
RTVSPropertyOp18
 70
     1
102
RTVSPropertyOp19
 70
     1
102
RTVSPropertyOp20
 70
     1
102
RTVSPropertyOp21
 70
     1
102
RTVSPropertyOp22
 70
     1
102
RTVSPropertyOp23
 70
     1
102
RTVSPropertyOp24
 70
     1
102
RTVSPropertyOp25
 70
     1
102
RTVSPropertyOp26
 70
     1
102
RTVSPropertyOp27
 70
     1
102
RTVSPropertyOp28
 70
     1
102
RTVSPropertyOp29
 70
     1
102
RTVSPropertyOp30
 70
     1
102
RTVSPropertyOp31
 70
     1
102
RTVSPropertyOp32
 70
     1
  0
XRECORD
  5
11BD
102
{ACAD_REACTORS
330
11BC
102
}
330
11BC
100
AcDbXrecord
280
     1
102
RTVSPropertyOp0
 70
     0
102
RTVSPropertyOp1
 70
     0
102
RTVSPropertyOp2
 70
     0
102
RTVSPropertyOp3
 70
     0
102
RTVSPropertyOp4
 70
     0
102
RTVSPropertyOp5
 70
     0
102
RTVSPropertyOp6
 70
     0
102
RTVSPropertyOp7
 70
     0
102
RTVSPropertyOp8
 70
     0
102
RTVSPropertyOp9
 70
     0
102
RTVSPropertyOp10
 70
     0
102
RTVSPropertyOp11
 70
     0
102
RTVSPropertyOp12
 70
     0
102
RTVSPropertyOp13
 70
     0
102
RTVSPropertyOp14
 70
     2
102
RTVSPropertyOp15
 70
     0
102
RTVSPropertyOp16
 70
     0
102
RTVSPropertyOp17
 70
     0
102
RTVSPropertyOp18
 70
     0
102
RTVSPropertyOp19
 70
     0
102
RTVSPropertyOp20
 70
     0
102
RTVSPropertyOp21
 70
     0
102
RTVSPropertyOp22
 70
     0
102
RTVSPropertyOp23
 70
     0
102
RTVSPropertyOp24
 70
     0
102
RTVSPropertyOp25
 70
     0
102
RTVSPropertyOp26
 70
     0
102
RTVSPropertyOp27
 70
     0
102
RTVSPropertyOp28
 70
     0
102
RTVSPropertyOp29
 70
     0
102
RTVSPropertyOp30
 70
     0
102
RTVSPropertyOp31
 70
     0
102
RTVSPropertyOp32
 70
     0
  0
XRECORD
  5
11A3
102
{ACAD_REACTORS
330
11A2
102
}
330
11A2
100
AcDbXrecord
280
     1
102
RTVSPropertyOp0
 70
     1
102
RTVSPropertyOp1
 70
     1
102
RTVSPropertyOp2
 70
     1
102
RTVSPropertyOp3
 70
     1
102
RTVSPropertyOp4
 70
     1
102
RTVSPropertyOp5
 70
     1
102
RTVSPropertyOp6
 70
     1
102
RTVSPropertyOp7
 70
     1
102
RTVSPropertyOp8
 70
     1
102
RTVSPropertyOp9
 70
     1
102
RTVSPropertyOp10
 70
     1
102
RTVSPropertyOp11
 70
     1
102
RTVSPropertyOp12
 70
     1
102
RTVSPropertyOp13
 70
     1
102
RTVSPropertyOp14
 70
     1
102
RTVSPropertyOp15
 70
     1
102
RTVSPropertyOp16
 70
     1
102
RTVSPropertyOp17
 70
     1
102
RTVSPropertyOp18
 70
     1
102
RTVSPropertyOp19
 70
     1
102
RTVSPropertyOp20
 70
     1
102
RTVSPropertyOp21
 70
     1
102
RTVSPropertyOp22
 70
     1
102
RTVSPropertyOp23
 70
     1
102
RTVSPropertyOp24
 70
     1
102
RTVSPropertyOp25
 70
     1
102
RTVSPropertyOp26
 70
     1
102
RTVSPropertyOp27
 70
     1
102
RTVSPropertyOp28
 70
     1
102
RTVSPropertyOp29
 70
     1
102
RTVSPropertyOp30
 70
     1
102
RTVSPropertyOp31
 70
     1
102
RTVSPropertyOp32
 70
     1
  0
XRECORD
  5
11B9
102
{ACAD_REACTORS
330
11B8
102
}
330
11B8
100
AcDbXrecord
280
     1
102
RTVSPropertyOp0
 70
     1
102
RTVSPropertyOp1
 70
     1
102
RTVSPropertyOp2
 70
     1
102
RTVSPropertyOp3
 70
     1
102
RTVSPropertyOp4
 70
     1
102
RTVSPropertyOp5
 70
     1
102
RTVSPropertyOp6
 70
     1
102
RTVSPropertyOp7
 70
     1
102
RTVSPropertyOp8
 70
     1
102
RTVSPropertyOp9
 70
     1
102
RTVSPropertyOp10
 70
     1
102
RTVSPropertyOp11
 70
     1
102
RTVSPropertyOp12
 70
     1
102
RTVSPropertyOp13
 70
     1
102
RTVSPropertyOp14
 70
     1
102
RTVSPropertyOp15
 70
     1
102
RTVSPropertyOp16
 70
     1
102
RTVSPropertyOp17
 70
     1
102
RTVSPropertyOp18
 70
     1
102
RTVSPropertyOp19
 70
     1
102
RTVSPropertyOp20
 70
     1
102
RTVSPropertyOp21
 70
     1
102
RTVSPropertyOp22
 70
     1
102
RTVSPropertyOp23
 70
     1
102
RTVSPropertyOp24
 70
     1
102
RTVSPropertyOp25
 70
     1
102
RTVSPropertyOp26
 70
     1
102
RTVSPropertyOp27
 70
     1
102
RTVSPropertyOp28
 70
     1
102
RTVSPropertyOp29
 70
     1
102
RTVSPropertyOp30
 70
     1
102
RTVSPropertyOp31
 70
     1
102
RTVSPropertyOp32
 70
     1
  0
XRECORD
  5
11B7
102
{ACAD_REACTORS
330
11B6
102
}
330
11B6
100
AcDbXrecord
280
     1
102
RTVSPropertyOp0
 70
     1
102
RTVSPropertyOp1
 70
     1
102
RTVSPropertyOp2
 70
     1
102
RTVSPropertyOp3
 70
     1
102
RTVSPropertyOp4
 70
     1
102
RTVSPropertyOp5
 70
     1
102
RTVSPropertyOp6
 70
     1
102
RTVSPropertyOp7
 70
     1
102
RTVSPropertyOp8
 70
     1
102
RTVSPropertyOp9
 70
     1
102
RTVSPropertyOp10
 70
     1
102
RTVSPropertyOp11
 70
     1
102
RTVSPropertyOp12
 70
     1
102
RTVSPropertyOp13
 70
     1
102
RTVSPropertyOp14
 70
     1
102
RTVSPropertyOp15
 70
     1
102
RTVSPropertyOp16
 70
     1
102
RTVSPropertyOp17
 70
     1
102
RTVSPropertyOp18
 70
     1
102
RTVSPropertyOp19
 70
     1
102
RTVSPropertyOp20
 70
     1
102
RTVSPropertyOp21
 70
     1
102
RTVSPropertyOp22
 70
     1
102
RTVSPropertyOp23
 70
     1
102
RTVSPropertyOp24
 70
     1
102
RTVSPropertyOp25
 70
     1
102
RTVSPropertyOp26
 70
     1
102
RTVSPropertyOp27
 70
     1
102
RTVSPropertyOp28
 70
     1
102
RTVSPropertyOp29
 70
     1
102
RTVSPropertyOp30
 70
     1
102
RTVSPropertyOp31
 70
     1
102
RTVSPropertyOp32
 70
     1
  0
XRECORD
  5
11B1
102
{ACAD_REACTORS
330
11B0
102
}
330
11B0
100
AcDbXrecord
280
     1
102
RTVSPropertyOp0
 70
     1
102
RTVSPropertyOp1
 70
     1
102
RTVSPropertyOp2
 70
     1
102
RTVSPropertyOp3
 70
     1
102
RTVSPropertyOp4
 70
     1
102
RTVSPropertyOp5
 70
     1
102
RTVSPropertyOp6
 70
     1
102
RTVSPropertyOp7
 70
     1
102
RTVSPropertyOp8
 70
     1
102
RTVSPropertyOp9
 70
     1
102
RTVSPropertyOp10
 70
     1
102
RTVSPropertyOp11
 70
     1
102
RTVSPropertyOp12
 70
     1
102
RTVSPropertyOp13
 70
     1
102
RTVSPropertyOp14
 70
     1
102
RTVSPropertyOp15
 70
     1
102
RTVSPropertyOp16
 70
     1
102
RTVSPropertyOp17
 70
     1
102
RTVSPropertyOp18
 70
     1
102
RTVSPropertyOp19
 70
     1
102
RTVSPropertyOp20
 70
     1
102
RTVSPropertyOp21
 70
     1
102
RTVSPropertyOp22
 70
     1
102
RTVSPropertyOp23
 70
     1
102
RTVSPropertyOp24
 70
     1
102
RTVSPropertyOp25
 70
     1
102
RTVSPropertyOp26
 70
     1
102
RTVSPropertyOp27
 70
     1
102
RTVSPropertyOp28
 70
     1
102
RTVSPropertyOp29
 70
     1
102
RTVSPropertyOp30
 70
     1
102
RTVSPropertyOp31
 70
     1
102
RTVSPropertyOp32
 70
     1
  0
XRECORD
  5
11B3
102
{ACAD_REACTORS
330
11B2
102
}
330
11B2
100
AcDbXrecord
280
     1
102
RTVSPropertyOp0
 70
     1
102
RTVSPropertyOp1
 70
     1
102
RTVSPropertyOp2
 70
     1
102
RTVSPropertyOp3
 70
     1
102
RTVSPropertyOp4
 70
     1
102
RTVSPropertyOp5
 70
     1
102
RTVSPropertyOp6
 70
     1
102
RTVSPropertyOp7
 70
     1
102
RTVSPropertyOp8
 70
     1
102
RTVSPropertyOp9
 70
     1
102
RTVSPropertyOp10
 70
     1
102
RTVSPropertyOp11
 70
     1
102
RTVSPropertyOp12
 70
     1
102
RTVSPropertyOp13
 70
     1
102
RTVSPropertyOp14
 70
     1
102
RTVSPropertyOp15
 70
     1
102
RTVSPropertyOp16
 70
     1
102
RTVSPropertyOp17
 70
     1
102
RTVSPropertyOp18
 70
     1
102
RTVSPropertyOp19
 70
     1
102
RTVSPropertyOp20
 70
     1
102
RTVSPropertyOp21
 70
     1
102
RTVSPropertyOp22
 70
     1
102
RTVSPropertyOp23
 70
     1
102
RTVSPropertyOp24
 70
     1
102
RTVSPropertyOp25
 70
     1
102
RTVSPropertyOp26
 70
     1
102
RTVSPropertyOp27
 70
     1
102
RTVSPropertyOp28
 70
     1
102
RTVSPropertyOp29
 70
     1
102
RTVSPropertyOp30
 70
     1
102
RTVSPropertyOp31
 70
     1
102
RTVSPropertyOp32
 70
     1
  0
XRECORD
  5
11A9
102
{ACAD_REACTORS
330
11A8
102
}
330
11A8
100
AcDbXrecord
280
     1
102
RTVSPropertyOp0
 70
     1
102
RTVSPropertyOp1
 70
     1
102
RTVSPropertyOp2
 70
     1
102
RTVSPropertyOp3
 70
     1
102
RTVSPropertyOp4
 70
     1
102
RTVSPropertyOp5
 70
     1
102
RTVSPropertyOp6
 70
     1
102
RTVSPropertyOp7
 70
     1
102
RTVSPropertyOp8
 70
     1
102
RTVSPropertyOp9
 70
     1
102
RTVSPropertyOp10
 70
     1
102
RTVSPropertyOp11
 70
     1
102
RTVSPropertyOp12
 70
     1
102
RTVSPropertyOp13
 70
     1
102
RTVSPropertyOp14
 70
     1
102
RTVSPropertyOp15
 70
     1
102
RTVSPropertyOp16
 70
     1
102
RTVSPropertyOp17
 70
     1
102
RTVSPropertyOp18
 70
     1
102
RTVSPropertyOp19
 70
     1
102
RTVSPropertyOp20
 70
     1
102
RTVSPropertyOp21
 70
     1
102
RTVSPropertyOp22
 70
     1
102
RTVSPropertyOp23
 70
     1
102
RTVSPropertyOp24
 70
     1
102
RTVSPropertyOp25
 70
     1
102
RTVSPropertyOp26
 70
     1
102
RTVSPropertyOp27
 70
     1
102
RTVSPropertyOp28
 70
     1
102
RTVSPropertyOp29
 70
     1
102
RTVSPropertyOp30
 70
     1
102
RTVSPropertyOp31
 70
     1
102
RTVSPropertyOp32
 70
     1
  0
XRECORD
  5
119D
102
{ACAD_REACTORS
330
119C
102
}
330
119C
100
AcDbXrecord
280
     1
102
RTVSPropertyOp0
 70
     1
102
RTVSPropertyOp1
 70
     1
102
RTVSPropertyOp2
 70
     1
102
RTVSPropertyOp3
 70
     1
102
RTVSPropertyOp4
 70
     1
102
RTVSPropertyOp5
 70
     1
102
RTVSPropertyOp6
 70
     1
102
RTVSPropertyOp7
 70
     1
102
RTVSPropertyOp8
 70
     1
102
RTVSPropertyOp9
 70
     1
102
RTVSPropertyOp10
 70
     1
102
RTVSPropertyOp11
 70
     1
102
RTVSPropertyOp12
 70
     1
102
RTVSPropertyOp13
 70
     1
102
RTVSPropertyOp14
 70
     1
102
RTVSPropertyOp15
 70
     1
102
RTVSPropertyOp16
 70
     1
102
RTVSPropertyOp17
 70
     1
102
RTVSPropertyOp18
 70
     1
102
RTVSPropertyOp19
 70
     1
102
RTVSPropertyOp20
 70
     1
102
RTVSPropertyOp21
 70
     1
102
RTVSPropertyOp22
 70
     1
102
RTVSPropertyOp23
 70
     1
102
RTVSPropertyOp24
 70
     1
102
RTVSPropertyOp25
 70
     1
102
RTVSPropertyOp26
 70
     1
102
RTVSPropertyOp27
 70
     1
102
RTVSPropertyOp28
 70
     1
102
RTVSPropertyOp29
 70
     1
102
RTVSPropertyOp30
 70
     1
102
RTVSPropertyOp31
 70
     1
102
RTVSPropertyOp32
 70
     1
  0
XRECORD
  5
11B5
102
{ACAD_REACTORS
330
11B4
102
}
330
11B4
100
AcDbXrecord
280
     1
102
RTVSPropertyOp0
 70
     1
102
RTVSPropertyOp1
 70
     1
102
RTVSPropertyOp2
 70
     1
102
RTVSPropertyOp3
 70
     1
102
RTVSPropertyOp4
 70
     1
102
RTVSPropertyOp5
 70
     1
102
RTVSPropertyOp6
 70
     1
102
RTVSPropertyOp7
 70
     1
102
RTVSPropertyOp8
 70
     1
102
RTVSPropertyOp9
 70
     1
102
RTVSPropertyOp10
 70
     1
102
RTVSPropertyOp11
 70
     1
102
RTVSPropertyOp12
 70
     1
102
RTVSPropertyOp13
 70
     1
102
RTVSPropertyOp14
 70
     1
102
RTVSPropertyOp15
 70
     1
102
RTVSPropertyOp16
 70
     1
102
RTVSPropertyOp17
 70
     1
102
RTVSPropertyOp18
 70
     1
102
RTVSPropertyOp19
 70
     1
102
RTVSPropertyOp20
 70
     1
102
RTVSPropertyOp21
 70
     1
102
RTVSPropertyOp22
 70
     1
102
RTVSPropertyOp23
 70
     1
102
RTVSPropertyOp24
 70
     1
102
RTVSPropertyOp25
 70
     1
102
RTVSPropertyOp26
 70
     1
102
RTVSPropertyOp27
 70
     1
102
RTVSPropertyOp28
 70
     1
102
RTVSPropertyOp29
 70
     1
102
RTVSPropertyOp30
 70
     1
102
RTVSPropertyOp31
 70
     1
102
RTVSPropertyOp32
 70
     1
  0
ENDSEC
  0
EOF
